Song name
# A B C D E F G H I J K L M N O P Q R S T U V W X Y Z

Doves - Firesuite Live tab

DOVES   -    Firesuite (Live Version).

Main Theme (follow the bass guitar, listen to the records to get rhythm).

---x-------x-------x-------x----------|
---x-------x-------x-------x----------|
---7-------x-------x-------x----------|
---x-------9-------8-------12---------|
---5-------x-------x-------10---------|
---x-------7-------6-------x----------|

On the same theme, 2nd guitar can play this chords (with Flanger effect).

---5-------7-------6-------10---------|
---6-------7-------6-------12---------|
---7-------7-------7-------12---------|
---7-------9-------8-------12---------|
---5-------9-------8-------10---------|
---5-------7-------6-------10---------|


Break :


---3-------------------------------1---0---1-----|
---3------5(bend)---3-------5------3---1---3-----|
---3----------------------5---5----2---0---2-----|
---5--------------------5----------0---2---0-----|      X 2 times.
---5-------------------------------0---3---0-----|
---3-------------------------------0---0---0-----|

End ( Last Theme ):

---3-------5-------6-------8-------5--x---5------|
---3-------5-------6-------8-------6--5---6------|
---3-------5-------7-------9-------7--5---7------|
---5-------7-------8-------10------7--5---7------|
---5-------7-------8-------10------5--x---5------|
---x-------x-------x-------x-------5--x---5------|
Tap to rate this tab
# A B C D E F G H I J K L M N O P Q R S T U V W X Y Z