Song name
# A B C D E F G H I J K L M N O P Q R S T U V W X Y Z

Doves - Man Who Told Everything tab

Help us improve GuitareTab! Take a short survey!
The Man who Told Everything for two guitars, go on, impress your mates with an easy song 
sounds AMAZING!
guitar 1 Standard tuning.
TAB Capo on 8

E-----------------------------------------|
B-1----1----1---1---1----1----0---0-------|
G--2----2----0---0---2----2----1---1------|
D----2---2----2---2---3----3----2---2-----|
A-----------------------------------------|
E-----------------------------------------|

E-----------------------------------------|
B-1----1----1---1---1----1----0---0-------|
G--2----2----0---0---2----2----1---1------|
D----2----2---2---2----3----3---2---2-----|
A-----------------------------------------|
E-----------------------------------------|

throughout.

Guitar 2 standard tuning.chords:
Capo on 1

Intro/Chorus:

Em  D  C  B

Verse:

C  D  Em  C  Am  D  B  B
Related for Man Who Told Everything tab