Guitaretab - guitar tabs
Song name
# A B C D E F G H I J K L M N O P Q R S T U V W X Y Z

Dovid Gabay - Tamshich tab

-------------------------------------------------------------------------------
			     tamshich  dovid gabay  dovidgabay.net
-------------------------------------------------------------------------------
Tabbed by:nutcase1028


| /  slide up
| \  slide down
| h  hammer-on
| p  pull-off
| ~  vibrato
| *  artificial harmonic
| x  Mute note
p.m.   palm mute
========================================================================

as far as I can tell this is note perfect...

Tuning: standard           ______________
PLAY TWICE             p.m.              )
e|----------------------------------------!
B|----------------------------------------!
G|--9-10-9-7-9-7--------------------------!
D|---------------10------7---9----10------!
A|---------------------7----7---7-----7---!
E|----------------------------------------!
                           _______________
                       p.m.               )         * ~~~            *~~~~
e|---------------------------------------------------------------------------|
B|---------------------------------------------------------------------------|
G|--7-9-7-5-7-5------------------------------7--7---5----------------5-------|
D|---------------9-------5-----7-----9------------------------5---7----------|
A|---------------------5----5----5------5------------------7-----------------|
E|---------------------------------------------------------------------------|
                         _____________                        ______________
                     p.m.             )                   p.m.              )
e|---------------------------------------------------------------------------|
B|---------------------------------------------------------------------------|
G|--9-10-9-7-9-7--------------------------7-9-7-5-7-5------------------------|
D|---------------10-----7-----9---10-------------------9-----5----7----9-----|
A|--------------------7----7----7----7---------------------5----5----5----5--|
E|---------------------------------------------------------------------------|

      ~~~   ~~~   ~~~   ~~~~  ~~~    ~~~~  *
e|---------------------------------------------------------------------------|
B|---------------------------------------------------------------------------|
G|---7-----9----7-----9------7------9------7h8p7-----7-----------------------|
D|------------------------------------------------10----10---7---------------|
A|---------------------------------------------------------------------------|
E|---------------------------------------------------------------------------|
[ Tab from: http://www.guitaretab.com/d/dovid-gabay/111166.html ]
The previous riffs are played with the words. After that the guitar mimics the words 
this
                                        ~~~~~~~~~~~~~~~~~~~~~~
e|---------------------------------------------------------------------------|
B|---------------------------------------------------------------------------|
G|--/5-5-5-5-4-4-4-4--2-2-2-0----0--2-2--------------------------------------|
D|-----------------------------2---------------------------------------------|
A|---------------------------------------------------------------------------|
E|---------------------------------------------------------------------------|

e|---------------------------------------------------------------------------|
B|---------------3------------3-3--------------------------------------------|
G|---/4-4-4-4-5-----0--2--4---------5----------------------------------------|
D|---------------------------------------------------------------------------|
A|---------------------------------------------------------------------------|
E|---------------------------------------------------------------------------|

e|---------------------------------------------------------------------------|
B|----------------------------------3------3---3--5-5---3---3-5-5--3---3-5-5-|
G|---/5-5-5-5-4-4-4-4-2-2-2---4-5-4---0------5------------5----------5-------|
D|---------------------------------------------------------------------------|
A|---------------------------------------------------------------------------|
E|---------------------------------------------------------------------------|


 ___________________________________________________________________________
(        this section is repeated, first with one ending then the next      )

                                          __________________________________
                                          (1.
e|------------------------------------------------------------3---------------|
B|-5-3----5-3---3-------5-3-----5-3---3-----------3-5-3----3-----5-5----------|
G|-----5------5---5----------5------5---5--2-2-5--------5--------------------|
D|----------------------------------------------------------------------------|
A|----------------------------------------------------------------------------|
E|----------------------------------------------------------------------------|

 ____________________________
(2.
e|--------------------------------------------------------------------------|
B|--------3-5-3---3---------------------------------------------------------|
G|--2-2-5-------5---52-2---------------------------------------------------|
D|--------------------------------------------------------------------------|
A|--------------------------------------------------------------------------|
E|--------------------------------------------------------------------------|
Related for Tamshich tab