Guitaretab - guitar tabs
Song name
# A B C D E F G H I J K L M N O P Q R S T U V W X Y Z

Dovid Gabay - Legabay tab

-------------------------------------------------------------------------------
			     legabay  dovid gabay
-------------------------------------------------------------------------------
Tabbed by: nutcase1028 

Tuning:standard

e|---------------------------------------------------------------------------|
B|--15------------15---13-12-----------13-12-8-12----10-12-10-8-10-----------|
G|------------14--------------12-14------------------------------------------|
D|--------12-----------------------------------------------------------------|
A|---------------------------------------------------------------------------|
E|---------------------------------------------------------------------------|
[ Tab from: http://www.guitaretab.com/d/dovid-gabay/111325.html ]
e|---------------------------------------------------------------------------|
B|--15------------15---13-12-------------------------------------------------|
G|------------14---------------12-14---14-12-9-5---7-9-7-5-7-----------------|
D|---------12----------------------------------------------------------------|
A|---------------------------------------------------------------------------|
E|---------------------------------------------------------------------------|
Words  
Repeat this twice, first with one ending then the next
e|---------------------------------------------------------------------------|
B|----------------------------------------------------15---------------------|
G|--14-14-14-14-16-14--14-14-14-14-16-14--14-14-14-14----14-12-11------------|
D|---------------------------------------------------------------------------|
A|---------------------------------------------------------------------------|
E|---------------------------------------------------------------------------|
   ______________________________________ 
  (1.
e|---------------------------------------------------------------------------|
B|---------------------------12-12-------------------------------------------|
G|-----11-12----14-12-11-----------14----------------------------------------|
D|--14-------14----------14--------------------------------------------------|
A|---------------------------------------------------------------------------|
E|---------------------------------------------------------------------------|
 _______________________________
(2.
e|---------------------------------------------------------------------------|
B|-----------12--------------------------------------------------------------|
G|-----11-12----14-12-11-----------------------------------------------------|
D|--14--------------------14-12----------------------------------------------|
A|---------------------------------------------------------------------------|
E|---------------------------------------------------------------------------|

Repeat this twice, first with one ending then the next
e|---------------------------------------------------------------------------|
B|----------------------------------------------------15---------------------|
G|--14-14-14-14-16-14--14-14-14-14-16-14--14-14-14-14----14-12-11------------|
D|---------------------------------------------------------------------------|
A|---------------------------------------------------------------------------|
E|---------------------------------------------------------------------------|

   ______________________________________ 
  (1.
e|---------------------------------------------------------------------------|
B|---------------------------12-12-------------------------------------------|
G|-----11-12----14-12-11-----------14----------------------------------------|
D|--14-------14----------14--------------------------------------------------|
A|---------------------------------------------------------------------------|
E|---------------------------------------------------------------------------|


   ______________________________
  (2
e|----------------------14-12-10---------------------------------------------|
B|------------12-------------------------------------------------------------|
G|------11-12----14-14-------------------------------------------------------|
D|---14----------------------------------------------------------------------|
A|---------------------------------------------------------------------------|
E|---------------------------------------------------------------------------|
 
Repeat four times
e|-12-12-12-12-12-12--12-12-12-12-12-12-----------------12---12--14--12-------|
B|----------------------------------------15-12------------15--15-------15-15-|
G|----------------------------------------------14---14-----------------------|
D|----------------------------------------------------------------------------|
A|----------------------------------------------------------------------------|
E|----------------------------------------------------------------------------|



Related for Legabay tab