Song name
# A B C D E F G H I J K L M N O P Q R S T U V W X Y Z

Down From Up - The Last Time chords

Highlighted       Show chord diagrams
I knew I had to play this song the first time I heard it but there was no tab so I 
tabbed it out.. It's not 100% perfect (I didn't tab the solo guitar out) but it's 
good for one guitar to play through.


Standard Tuning, No Capo


Intro/verses/interlude/outro:

e|-------------------|-------------------|
b|-------------------|-------------------|
g|-------0--------0--|-------0--------0--|
d|----2--------2-----|----2--------2-----|
a|-------------------|-------------------|
e|-0--------3--------|-3--------2--------|


Pre-Chorus:

            Em      Am 
And I can't take anymore

        C       D
I can't take anymore


Chorus:

Em              Am
I won't break again

    C             D
And i won't care, care about where you've been

Em             
I see the names in your eyes

    Am                      C                   C
But one day you'll realize, and regret the memory

[Post-Chorus Riff]
That you only loved me, when you were lonely



Post-Chorus Riff - "That you only loved me..."

e|-------------------------0------2--|
b|--------------------------------3--|
g|-------0--------0---------------2--|
d|----2--------2--------2---------0--|
a|-3--------2--------0---------------|
e|-----------------------------------|
  You       only   loved me    (strum down once, let ring)
Tap to rate this tab
# A B C D E F G H I J K L M N O P Q R S T U V W X Y Z