Down The Line - The Great Debate tab

For any questions, email me at Asomeone50@gmail.com


Intro

|-----2-------2-------3-------3-------0-------0-------0------------|
|-------------------------------------------------------------3----|
|---2---2---2---2---3---3---3---3---1---1---1---1---0---0---0---0--|
|-0-------0-------0-------0-------0-------0-------0-------0--------|
|------------------------------------------------------------------|
|------------------------------------------------------------------|x2


Verse

|-----2-------2-------3-------3-------0-------0-------0------------|
|-------------------------------------------------------------3----|
|---2---2---2---2---3---3---3---3---1---1---1---1---0---0---0---0--|
|-0-------0-------0-------0-------0-------0-------0-------0--------|
|------------------------------------------------------------------|
|------------------------------------------------------------------|x2

|------3-------3-------3-------3----|
|-----------------------------------|
|----3---3---3---3---3---3---5---5--|
|--0-------0-------0-------0--------|
|-----------------------------------|
|-----------------------------------|


Chorus

|------5-------5-------5-------5-------3-------3-------2-------0----|
|-------------------------------------------------------------------|
|----2---2---2---2---5---5---5---5---4---4---4---4---3---3---3---3--|
|--0-------0-------0-------0-------0-------0-------0-------0--------|
|-------------------------------------------------------------------|
|-------------------------------------------------------------------|x2

|------5-------5--------5-------5-------3--|
|------------------------------------------|
|----2---2---2---2----5---5---5---5---3----|
|--0-------0--------0-------0-------0------|
|------------------------------------------|
|------------------------------------------|


Chord Chorus

|--2----0----3----0--|----2----0----0--|
|--3----3----0----3--|----3----3----3--|
|--2----0----0----3--|----2----0----3--|
|--0----2----0----0--|----0----2----0--|
|--0----3----2----1--|----0----3----1--|
|------------3-------|x2---------------|


|--2----0----3----0--|----2----0----0--|
|--3----3----0----3--|----3----3----3--|
|--2----0----0----3--|----2----0----3--|
|--0----2----0----0--|----0----2----0--|
|--0----3----2----1--|----0----3----1--|
|------------3-------|x2---------------|


|--2----0----3----0--|
|--3----3----0----3--|
|--2----0----0----3--|
|--0----2----0----0--|
|--0----3----2----1--|
|------------3-------|x6



Outro


|--2----0----3----3---2---0----2--|
|--3----3----0--------------------|
|--2----0----0--3---3---3---3--2--|
|--0----2----0-----------------0--|
|--0----3----2--------------------|
|------------3--------------------|


Check out Down the Line at www.Downthelineband.com
Tap to rate this tab
 
# A B C D E F G H I J K L M N O P Q R S T U V W X Y Z