Song name
# A B C D E F G H I J K L M N O P Q R S T U V W X Y Z

Down The Line - Theme Song tab

For any questions, email me at Asomeone50@gmail.com

Tuning: Standard

b = bend
x = mute

Verse 1:
|-----x-------x-------x-------x-|
|-----x-------x-------x-------x-|
|-----x-------x-------x-------x-|
|-----x-------x---0-0-x-2--2b-x-|
|-3-3-2-0-----x-------x-------x-|
|-----x---3-3-x-3-----x-------x-|x3

|-----x-------x-------3-3-3-|
|-----x-------x-------3-3-3-|
|-----x-------x-------------|
|-----x-------x---0-0-0-0-0-|
|-3-3-2-0-----x-------------|
|-----x---3-3-x-3-----------|

Prechorus:
|--3----x----3----x----3----x----3----x--|
|--3----x----3----x----3----x----3----x--|
|--0----x----0----x----0----x----0----x--|
|--2----x----0----x----0----x----2----x--|
|--3----x----2----x---------x---------x--|
|-------x----3----x---------x---------x--|x3

|--x---x---x-----x---x---x---3--|
|--3---3---3-----3---3---3---3--|
|--0---0---2-----0---0---2---2--|
|--2---0---0-----2---2---0---0--|
|--3---2---0-----2---3-------0--|
|------3---------0-----------2--|

Chorus:
|--3---3---3---3--|
|--3---3---3---3--|
|--0---0---0---2--|
|--2---2---0---0--|
|--2---3---2---0--|
|--0-------3---2--|x3

|--0---2--|
|--3---3--|
|--0---2--|
|--2---0--|
|--3---0--|
|---------|

Verse 2:
|-----x-------x-------x-------x-|
|-----x-------x-------x-------x-|
|-----x-------x-------x-------x-|
|-----x-------x---0-0-x-2--2b-x-|
|-3-3-2-0-----x-------x-------x-|
|-----x---3-3-x-3-----x-------x-|

|-----x-------x-------3-3-3-|
|-----x-------x-------3-3-3-|
|-----x-------x-------------|
|-----x-------x---0-0-0-0-0-|
|-3-3-2-0-----x-------------|
|-----x---3-3-x-3-----------|

Bridge:
|--3---3---3---3-3-3--|
|--3---3---3---3-3-3--|
|--0---0---0---0-0-0--|
|--2---0---x---x-x-0--|
|----------3---x-2-x--|
|--------------3-x-x--|x3

|--x---x---2---3--|
|--3---3---3---3--|
|--0---0---2---2--|
|--2---x---0---0--|
|------3-------0--|
|--------------2--|

Verse 3:
|-----------------------------------|
|-----------------------------------|
|-----------------------------------|
|-----------------0-0-0-2-2-2-2-2-2-|
|-3-3-3-3---------------------------|
|---------3-3-3-3-------------------|

|--------------------------------------------|
|--------------------------------------------|
|---------------------------------------<12>-|
|------------------------------------<12>----|
|-3-3-3-3------------------------------------|
|---------3-3-3-3--10-10-10-12-12-12---------|

|-0-0-0-0---------2-2-2-3-3-3-3-3-3-|
|---------3-3-3-3-------------------|
|-----------------------------------|
|-----------------0-0-0-2-2-2-2-2-2-|
|-3-3-3-3---------------------------|
|---------3-3-3-3-------------------|

|-0-0-0-0---------2-2-2-3-|
|---------3-3-3-3-3-3-3-3-|
|-----------------2-2-2-2-|
|-----------------0-0-0-0-|
|-3-3-3-3-----------------|
|---------3-3-3-3---------|

Outro:
|-----x-------x-------x-------x-|
|-----x-------x-------x-------x-|
|-----x-------x-------x-------x-|
|-----x-------x---0-0-x-2--2b-x-|
|-3-3-2-0-----x-------x-------x-|
|-----x---3-3-x-3-----x-------x-|x3

|---------------x--|
|---------------3--|
|---------------2--|
|-2-2-0-0---0-0-0--|
|-3-3-2-0-2-0-2-0--|
|---------3-----x--|


Check out Down the Line at www.Downthelineband.com
Tap to rate this tab
# A B C D E F G H I J K L M N O P Q R S T U V W X Y Z