Song name
# A B C D E F G H I J K L M N O P Q R S T U V W X Y Z

Down The Line - All Wrong tab

For any questions, email me at Asomeone50@gmail.com

Down the Line - All Wrong


Intro:
|-----------------------------------|
|--1--1----1--1----1--1----1--1-----|
|--0--2----1--1----0--2----1--1-----|
|--2--2----3--3----2--2----3--3-----|
|--3--0----------0-3--0----------0--|
|--------0-1--1----------0-1--1-----|

Verse 1:
|------------------|
|--1--1----1--0----|
|--0--2----1--0----|
|--2--2----3--0----|
|--3--0----------0-|
|--------0-1--3----| x3

|------------------|
|--1--1----1--0----|
|--0--2----1--0----|
|--2--2----3--0----|
|--3--0------------|
|--------0-1--3--0-|

Prechorus 1:
|------------------------------|
|--1x-1x-1x-1x---3x-3x-3x-3x---|
|--2x-2x-2x-2x---4x-4x-4x-4x---|
|--3x-3x-3x-3x---5x-5x-5x-5x---|
|------------------------------|
|--1x-1x-1x-1x-0-3x-3x-3x-3x-0-|

Chorus 1:
|------------------------------------------------3--|
|------1-------3-------1-------0---1--1-------------|
|--------0-------0-------0-------0-2--2-------------|
|----2-------0-------2-------------3--3--------0----|
|--3-------2-------0---------2---------------2------|
|--------------------------3-------1--1--0-3--------|


Verse 2:
|--------------------------------|
|--1--1----1--1----1--1----1--1--|
|--0--2----1--1----0--2----1--1--|
|--2--2----3--3----2--2----3--3--|
|--3--0----------0-3--0----------|
|--------0-1--1----------0-1--1--|

|--0--0--1--3--|
|--1--1--1--0--|
|--0--2--1--0--|
|--2--2--3--0--|
|--3--0--3--2--|
|--------1--3--|x4

Prechorus 2: 2 muted strokes in between each chord
|--1-1-1-1-3-3-3-3--|
|--1-1-1-1-3-3-3-3--|
|--2-2-2-2-4-4-4-4--|
|--3-3-3-3-5-5-5-5--|
|--3-3-3-3-5-5-5-5--|
|--1-1-1-1-3-3-3-3--|

Chorus 2:
|----------------------------------1--1--------3--|
|------1-------3-------1-------0---1--1-----------|
|--------0-------0-------0-------0-2--2-----------|
|----2-------0-------2-------------3--3------0----|
|--3-------2-------0---------2-----3--3----2------|
|--------------------------3-------1--1--3--------|

Closing:
|------------------|
|--1--1----1--1----|
|--0--2----1--1----|
|--2--2----3--3----|
|--3--0----------0-|
|--------0-1--1----|x3

|---------------------|
|--1--1----1--0----1--|
|--0--2----1--0----0--|
|--2--2----3--0----2--|
|--3--0------------3--|
|--------0-1--3-------|


Check out Down the Line at www.Downthelineband.com
Tap to rate this tab
# A B C D E F G H I J K L M N O P Q R S T U V W X Y Z