Song name
# A B C D E F G H I J K L M N O P Q R S T U V W X Y Z

Down The Sun - Enslaved tab

Help us improve GuitareTab! Take a short survey!
PM = Palm Mute
/or\ = Slide up or down

Intro
----------------------------------------------|
----------------------------------------------|
----------------------------------------------|
----------------------------------------------|
-3-------------/6-------------\1--------------|
-3-------------/6-------------\1--------------|
                                                                              
Riff 1		   On the last time play this
------------------|---------------------------|
------------------|---------------------------|
------------------|---------------------------|
------------------|---------------------------|
-3/5--------------|-3/5-----------------------|
-3/5-1-2-1-2-1212-|-3/5-1-2-1-2-1---2---1---2-|
     PM..........       PM...................                                 

Chorus Riff
-------------------------------------------------------------|
-------------------------------------------------------------|
-------------------------------------------------------------|
-------------------------------------------------------------|
-3-------------/6--------------5--------------\1-------------|
-3-------------/6--------------5--------------\1-------------|
                                                                              
Riff 2
---------------------------|
---------------------------|
---------------------------|
---------------------------|
---------------------------|
-0-3-4-0-3-2-0-3-4-0-3-2-0-|
 PM.......................                                                    

Riff 3      Riff 4
-----------|---------|
-----------|---------|
-----------|---------|
-----------|---------|
-0-3-4-0-7-|-0--0--0-|
-0-3-4-0-7-|-0--0--0-|
 PM.....     .  .  .


Riff Order:

Intro
Riff 1
Chorus
Riff 1
Chorus
Riff 2
Riff 3
Riff 4
Chorus
Related for Enslaved tab