Song name
# A B C D E F G H I J K L M N O P Q R S T U V W X Y Z

Down The Sun - Jars tab

/or\ = slide up or down
PM = Palm Mute
v = vibrato
* = natural harmonic
h = hammer on
p = pull off

Riff A
-------------------------|------|-------------------------|
-------------------------|------|-------------------------|
-------------------------|------|-------------------------|
-------------------------|------|-------------------------|
-------------------------|------|-------------------------|
-1-2-1-2-0--0-2--0-2h3p0-|-6v-\-|-1-2-1-2-0--0-2--0-2h3p0-|
                      x 4                              x 4

PreChorus             Chorus
--------------------||--------------------|
--------------------||--------------------|
--------------------||--------------------|
--------------------||--------------------|
--------------------||--------------------|
-1---0---2---0---3v-||-1---0---3---0---5v-|
 PM................    ..................

Riff B               Riff C
-------------------||---------------------------------|
-------------------||---------------------------------|
-------------------||---------------------------------|
-------------------||---------------------------------|
-0-0-0--0-0-0--0-0-||-4----5----2----1----4----5----0-|
-0-0-0--0-0-0--0-0-||-4----5----2----1----4----5----0-|
                      PM.............................

Outro
---------------------|-------------------|---------------------|----------------|
---------------------|-------------------|---------------------|----------------|
---------------------|-------------------|---------------------|-------------2*-|
---------------------|-------------------|---------------------|----------------|
-3--3--3--4--0--4-\3-|-3--3--3--4--0-----|-3--3--3--4--0--4-\3-|-3--3--3--4-----|
-3--3--3--4--0--4-\3-|-3--3--3--4--0--/\-|-3--3--3--4--0--4-\3-|-3--3--3--4-----|
 PM.................   .............       ...................   ..........

---------------------|------------------|---------------------|------------|
---------------------|------------------|---------------------|------------|
---------------------|------------------|---------------------|------------|
---------------------|------------------|---------------------|------------|
-3--3--3--4--0--4-\3-|-3--3--3--4--0-/\-|-3--3--3--4--0--4-\3-|-3--3--3--4-|
-3--3--3--4--0--4-\3-|-3--3--3--4--0-/\-|-3--3--3--4--0--4-\3-|-3--3--3--4-|
 PM.................   .............      ...................   ..........

RIFF ORDER:

Riff A
PreChorus
Chorus
Riff A
PreChorus
Chorus
Riff B
Riff C
Outro

Tap to rate this tab
# A B C D E F G H I J K L M N O P Q R S T U V W X Y Z