Song name
# A B C D E F G H I J K L M N O P Q R S T U V W X Y Z

Down The Sun - We All Die tab

b = bend
r = release
/ = slide

riff 1:
|-----------------------------------------------------------------------------|
|-----------------------------------------------------------------------------|
|-----------------------------------------------------------------------------|
|--------------------------------------------------------------------------5--|
|--------------------------------------------------------------------------5--|
|-6--6-6b--r--6-6b--r--6-6b--r--6-6b-r-6b-r-6b--r--6-6b--r--6-6b--r--6-6-6-5--|

riff 2
part 1:
|--------------------------------------------------------------------------------|
|--------------------------------------------------------------------------------|
|--------------------------------------------------------------------------------|
|-6---6---0-6---6---0-6---6---0-7--7--6--9--6---6---0-6---6---0-6---6-0--77-5/8-|
|-6---6---0-6---6---0-6---6---0-7--7--6--9--6---6---0-6---6---0-6---6-0--77-5/8-|
|-6---6---0-6---6---0-6---6---0-7--7--6--9--6---6---0-6---6---0-6---6-0--77-5/8-|

part 2:
|------------------------------|
|------------------------------|
|------------------------------|
|-6-----4-----7-----7/9--9--9--|
|-6-----3-----7-----7/9--9--9--|
|-6-----------7-----7/9--9--9--|

riff 3:
|------------------------------------------|
|------------------------------------------|
|------------------------------------------|
|------------------------------------3-----|
|-6---6---0-6---6---0-6---6---0-6--6-2-----|
|-6---6---0-6---6---0-6---6---0-6--6-------|

outro:
|---------|
|---------|
|---------|
|-6---6---|
|-6---6---|
|-6---6---|
Tap to rate this tab
# A B C D E F G H I J K L M N O P Q R S T U V W X Y Z