Song name
# A B C D E F G H I J K L M N O P Q R S T U V W X Y Z

Down The Sun - Medicated tab

PM = palm mute
P  = pull off
/  = slide

riff 1:
|-----------------------------|
|-----------------------------|
|-----------------------------|
|-----------------------------|
|-0-------------0-------------|
|-0-0-0-0-0-0-0-0-------------|
 |______PM_____|

riff 2
part 1:
|-----------------------------------------------------------------|
|-----------------------------------------------------------------|
|-----------------------------------------------------------------|
|-6---6---6---6---6---6---6---6---6---6---6---6---6---6---6---6---|
|-6---6---6---6---6---6---6---6---6---6---6---6---6---6---6---6---|
|-6---6---6---6---6---6---6---6---6---6---6---6---6---6---6---6---|

part 2:
|-----------------------------------------------|
|-----------------------------------------------|
|-----------------------------------------------|
|-----------------------------------------------|
|-0---0----0---0----0---0----0---0----1---1-----|
|-0---0----0---0----0---0----0---0----1---1-----|
 |________________PM________________|

riff 3
part 1:
|----------------------------------------------|
|----------------------------------------------|
|----------------------------------------------|
|----------------------------------------------|
|----------------------------------------------|
|-0--0--6--0--6--0--0--6--0--0--6--0--0--3--4--|

part 2:
|------------------------------------|
|------------------------------------|
|------------------------------------|
|------------------------------------|
|-0--0--0--0--0-----0--0--0--0-------|
|-0--0--0--0--0-----0--0--0--0-------|
 |_______________PM_______________|

riff 4
part 1:
|------------------------------------|
|------------------------------------|
|------------------------------------|
|------------------------------------|
|-----------------0------------------|
|-0-0-0-0-0-0-0-0-0----0-0-0-0-0-----|
 |_______PM______|    |_____PM_____|

part 2:
|---------------------------------------|
|---------------------------------------|
|---------------------------------------|
|---------------------------------------|
|-0--0--6p5--0--6p5--0--6p5--0--6p5--3--|
|-0--0--6p5--0--6p5--0--6p5--0--6p5--3--|
riff 5
part 1:
|------------------------------------------|
|------------------------------------------|
|------------------------------------------|
|------------------------------------------|
|-0--0--6/5--0--5/6--0--4/3--0--4/5--0--0--|
|-0--0--6/5--0--5/6--0--4/3--0--4/5--0--0--|
 |_PM_|                             |_PM_|

part 2:
|--------------------------------------------|
|--------------------------------------------|
|--------------------------------------------|
|--------------------------------------------|
|-0--0--6/5--0--0--0--0--5/4--0--0--3--0--0--|
|-0--0--6/5--0--0--0--0--5/4--0--0--3--0--0--|
 |_PM_|     |____PM____|     |_PM_|   |_PM_|

riff 6
part 1:
|----------------------------|
|----------------------------|
|----------------------------|
|----------------------------|
|----------------------------|
|-0-3-4-0-3-4-0-3-4-0-3-2-5--|
 |____________PM___________|

part 2:
|----------------------------|
|----------------------------|
|----------------------------|
|----------------------------|
|-0-3-4-0-3-4-0-3-4-0-3-2-5--|
|-0-3-4-0-3-4-0-3-4-0-3-2-5--|

outro:
|-----------------------------|
|-----------------------------|
|-----------------------------|
|-----------------------------|
|-0-------------0-------------|
|-0-0-0-0-0-0-0-0-------------|
 |______PM_____|
Tap to rate this tab
# A B C D E F G H I J K L M N O P Q R S T U V W X Y Z