Guitaretab - guitar tabs
Song name
# A B C D E F G H I J K L M N O P Q R S T U V W X Y Z

Down To Nothing - Smash It tab

                                 DOWN TO NOTHING - SMASH IT

Tabbed By Matthew Sekuloff
the_closest_thing_to_closure@hotmail.com
www.myspace.com/mattsek


Tuning:CGCFAD (Drop C)

|------------------------------------------|
|------------------------------------------|
|----5555555------------5555555------------|
|444-5555555-4444444444-5555555-4444-------|
|444-3333333-4444444444-3333333-4444-------|
|444---------4444444444---------4444-------|

|-------------------------|
|-------------------------|
|----5555555--------------|
|444-5555555-4444444------| X4
|444-3333333-4444444------|
|444---------4444444------|
[ Tab from: http://www.guitaretab.com/d/down-to-nothing/72117.html ]
|---------------------|
|---------------------|
|-----4b--------------|
|4~----------4~-------|
|4~----------4~-------|
|4~----------4~-------|

|-------------------------|
|-------------------------|
|----5555555--------------|
|444-5555555-4444444------| X4
|444-3333333-4444444------|
|444---------4444444------|


This is the little solo that is in the song
|-------------------------------------------|
|------------12b-12-10-----------10b--------|
|11-11-11-11-----------11-9-11-9----11-9----|
|-------------------------------------------|
|-------------------------------------------|
|-------------------------------------------|

Pretty simple song,i dont think the solo is 100% correct though

~ Let Ring
b bend up
Related for Smash It tab
Advertisement will be closed in 10 seconds