Song name
# A B C D E F G H I J K L M N O P Q R S T U V W X Y Z

Down With Webster - One In A Million tab

One In A Million
By:Down With Webster
Tabbed by: Ha-cunha-matata
Tuning:Standard

The whole song is played on the E and B strings, simple yet fun to play!
Listen to the song for timing/picking pattern. 

Main Riff: 
e|--16-16-14----------19-19----18-18-----------------------------------------------|
B|-----------16-16-14-------14-------14--------------------------------------------|
G|---------------------------------------------------------------------------------|
D|---------------------------------------------------------------------------------|
A|---------------------------------------------------------------------------------|
E|---------------------------------------------------------------------------------|
Verse/Prechorus:
e|-------16-16-16-----------16-16-16|----------19-19-19-----------19-19-19---------|
B|-14-14-14-14-14--14-14-14-14-14-14|-16-16-16-16-16-16--16-16-16-16-16-16---------|
G|----------------------------------|----------------------------------------------|
D|----------------------------------|----------------------------------------------|
A|----------------------------------|----------------------------------------------|
E|----------------------------------|----------------------------------------------|

Thats it.
Tap to rate this tab
# A B C D E F G H I J K L M N O P Q R S T U V W X Y Z