Song name
# A B C D E F G H I J K L M N O P Q R S T U V W X Y Z

Down - Hail The Leaf tab

-------------------------------------------------------------------
                     Down-Hail the Leaf
-------------------------------------------------------------------
                    Tabbed by:Cade_nickels

This tab represents each section of the song, you will have to 
figure out the timing yourself, but that is the easy part!

Tuning:C F A# D# G C

Verse
C |-------------------|------------------|    |----|
G |-------------------|------------------|    |----|
D#|-------------------|------------------|    |----|
A#|-10-10-10-9-9-9/13-|-10-10-10-9-9-9\6-| x2 |----|
F |-0--0--0--0-0-0/0--|-0--0--0--0-0-0\0-|    |-8\-|
C |-------------------|------------------|    |-6\-|


Chorus
C |-----------------|-----------------------|
G |-----------------|-----------------------|
D#|-----------------|-----------------------|
A#|---------2-------|---2---------0h2p0h2p0-|
F |-----------------|-----------------------|
C |-0-0-3-0---0-0-3-|-0---0-0-3-0-----------|

C |------------------|------------------------|
G |------------------|------------------------|
D#|------------------|------------------------|
A#|---------2b-------|---2b---------0h2p0h2p0-|
F |------------------|------------------------|
C |-0-0-3-0----0-0-3-|-3----0-0-3-0-----------|

C |------------------|------------------|
G |------------------|------------------|
D#|------------------|------------------|
A#|---------2b-------|-------------3/10-|
F |----------------5-|-5-5-5-3-3---3/0--|
C |-0-0-3-0----0-0-3-|-3-3-3-1-1-1-1----|


Verse (variation)
C |----------------------|----|---------|
G |----------------------|----|---------|
D#|----------------------|----|---------|
A#|-10-10-10-12-12-12/14-|-x4-|-x--x----|
F |-0--0--0--0--0--0--0--|----|-x--x--7-|
C |----------------------|----|-x--x--5-|


Interlude
C |------------|--------------|
G |------------|--------------|
D#|---Bass-----|--------------|
A#|---Solo-----|--------------|
F |------------|-5--3-3-3-6\x-|
C |------------|-3--1-1-1-4\x-|

C |-----------------|--------------|
G |-----------------|--------------|
D#|-----------------|--------------|
A#|-----------------|--------------|
F |-5-5-5-3-3-8-6\x-|-5--3-3-8-6\3-| X3
C |-3-3-3-1-1-6-4\x-|-3--1-1-6-4\1-|

C |-------------------------|----------------------|
G |-------------------------|----------------------|
D#|-------------------------|----------------------|
A#|-12-12-12-10-10-10-13\10-|---12--10-10-10-13\10-|
F |-10-10-10-8--8--8--11\8--|---10--8--8--8--11\8--| X3
C |-------------------------|-x--------------------|
   
C |-----------------|
G |-----------------|
D#|-----------------|
A#|-----------------|
F |-2-2-2-2-2-2-2-2-|x3
C |-0-0-0-0-0-0-0-0-|

C |------------|
G |------------|
D#|------------|
A#|----x-x-x-x-|
F |-2--x-x-x-x-|
C |-0--x-x-x-x-|

C |-----------------|-------------------|----------------------|
G |-----------------|-------------------|----------------------|
D#|-----------------|-------------------|----------------------|
A#|-9-------9-------|---9-----7/9---7/9-|-------9-----7/9---7/-|
F |-7-------7-------|---7-----5/7---5/7-|-------7-----5/7---5/-|X2
C |-0-0-0-0-0-0-0-0-|-0-0-0-0-0---0-0---|-0-0-0-0-0-0-0---0-0--|

Outro
C |---------------|------------|---------------------------------|
G |-10b-10b-10br8-|------------|---------------------------------|
D#|---------------|-9b-9b-9br7-|---------------------------------|
A#|---------------|------------|---------9---------9-----7/9-----|
F |---------------|------------|---------7---------7-----5/7-----|
C |---------------|------------|-0-0-0-0-0-0-0-0-0-0-0-0-0---0-0-|

C |-17b-17b-17br15-|----------------|---------------------------------|
G |----------------|-17b-17b-17br15-|---------------------------------|
D#|----------------|----------------|---------------------------------|
A#|----------------|----------------|---------9---------9-----7/9-----|
F |----------------|----------------|---------7---------7-----5/7-----|
C |----------------|----------------|-0-0-0-0-0-0-0-0-0-0-0-0-0---0-0-|

C |---------------|-------------|
G |-10b-10b-10br8-|-------------|
D#|---------------|-9b-9b-9-7\x-|
A#|---------------|-------------|
F |---------------|-------------|
C |---------------|-------------|

C |-17b-17b-17br15-|-----------------|
G |----------------|-17b-17b-17-15/x-|
D#|----------------|-----------------|
A#|----------------|-----------------|
F |----------------|-----------------|
C |----------------|-----------------|


************************************

| /   slide up
| \   slide down
| h   hammer-on
| p   pull-off
| ~   vibrato
| +   harmonic
| x   Mute note
| b   Bend
| pb  Pre-bend
| br  Bend release
| pbr Pre-bend release
| brb Bend release bend

************************************
Tap to rate this tab
 
# A B C D E F G H I J K L M N O P Q R S T U V W X Y Z