Down - Stone The Crow tab

none of the tabbed versions of this song have it done in the tuning it's
supposed to be in yet, so i gave it a shot.  it's not completely right but
close enough for me.  you'll have to listen to the song to figure out what
tabs are for what parts.  it's pretty straight forward though.  oh, and i
haven't taken the time to tab out the solo yet.

tune down to C#

brp = bend release pull off

intro/verse - pepper's part
C#----------------------------------------------------------------|
G#----------------------------------------------------------------|
E ---------------------------------------------------5------------|
B -5h7---7\5---3h5~~~-5-----3h5brp3p0-0-------3h5/7----7\5-3-3h5--|
F#-----5-----3----------3h5-------------0-3h5---------------------|
C#----------------------------------------------------------------|


this part is played 2 different ways
--------------------|-------------------|
--------------------|-------------------|
--------------------|-------------------|
--5p3-5br-3h5-5br-3-|--5p3-5br-3h5-3----|
--------------------|----------------5--|
--------------------|-------------------|


intro/verse - kirk's part
--------------------------------------------------------------------------------------|
--------------------------------------------------------------------------------------|
----------------------------------------------------------------------------------7-7-|
-10/12~~~12/14~~~14-14br-14-14br-14-14br-12\10--etc-etc--10h12p-10----------------7-7-|
-------------------------------------------------------------------12---10-10-8-8-5-5-|
--------------------------------------------------------------------------------------|


chorus - kirk's part
------------------------------------------------------------------------|
------------------------------------------------------------------------|
-7-7-----10-10---12---7-------------7-7---------------------7-----------|
-7-7-x-x-10-10-x-12-x-7--------0h3--7-7-x-x-3-3-x-x-5-x-3-x-7-------0h3-|
-5-5-x-x-8--8--x-10-x-5----0h3------5-5-x-x-3-3-x-x-5-x-3-x-5---0h3-----|
--------------------------------------------1-1-----3---1---------------|


chorus - pepper's part
-------------------------------------------3-------------------------------------|
-3-3-----------------5---3-3---------------3------------------------3------------|
-2-2-0h2p0---0-------4---2-2-------------2----0h2p0---0-------------2------------|
-0-0-------3---3-3/5---0-0-0-----0h3-0-0------------3---3-3/5-5-5-0-0------0h3-0-|
-----------------------------0h3---------------------------------------0h3-------|
---------------------------------------------------------------------------------|

------------------------------------------------|
-------13---------------------------------------|
-12/14----14\12-10-12~~~-------10h12brp10-------|
-------------------------10h12------------12-12-|
------------------------------------------------|
------------------------------------------------|


-----------------------------------------------------|
-------13--------------------------------------------|
-12/14----14\12-10-12~~~-12p10-12br12--10h12-10~~----|
--------------------------------------------------12-|
-----------------------------------------------------|
-----------------------------------------------------|

-----------------------------------------------------------------------------------------|
-----------------------------------------------------------------------------------------|
-----------------------------------------------------------------------------------------|
---------3---3h5~~~-----3h5brp3p0-0-----------------3---3h5~~~-5p3-5br5-3h5-3------------|
-----3h5---5--------3h5-----------------12\-----3h5---5------------------------5~~---12\-|
-3h5----------------------------------------3h5------------------------------------------|


last chords
--------------|
--------------|
-12---10---7\-|
-12-x-10-x-7\-|
-10-x-8--x-5\-|
--------------|
Tap to rate this tab
 
# A B C D E F G H I J K L M N O P Q R S T U V W X Y Z