Song name
# A B C D E F G H I J K L M N O P Q R S T U V W X Y Z

Down - The Seed tab

(0.04)

B|---------------------------|---------------------------| x2
G|---------------------------|---------------------------|
D|---------------------------|---------------------------|
A|---------------------------|---------------------------|
E|---------------------------|----------------------x-x--|
B|--0h2-0h2-0h2-0h2-0h3p0--0-|-0h2-0h2-0h2-0h2p0--0-x-x--|



(0.17)

B|---------------------------|---------------------------| x2
G|---------------------------|---------------------------|
D|---------------------------|---------------------------|
A|---------------------------|---------------------------|
E|---------------------------|----------------------x-x--|
B|--0h2-0h2-0h2-0h2-0h3p0--0-|-0h2-0h2-0h2-0h2p0--0-x-x--|

B|-----------------------|
G|-----------------------|
D|-----------------------|
A|--5-5-5-5---5----7--7--|
E|--5-5-5-5---5----7--7--|
B|--3-3-3-3---3----5--5--|



(0.00)

B|---------------------------|---------------------------| x4
G|---------------------------|---------------------------|
D|---------------------------|---------------------------|
A|---------------------------|---------------------------|
E|---------------------------|----------------------x-x--|
B|--0h2-0h2-0h2-0h2-0h3p0--0-|-0h2-0h2-0h2-0h2p0--0-x-x--|

B|-----------------------|
G|-----------------------|
D|-----------------------|
A|--5-5-5-5---5----7--7--|
E|--5-5-5-5---5----7--7--|
B|--3-3-3-3---3----5--5--|

B|---------------------------|---------------------------| x2
G|---------------------------|---------------------------|
D|---------------------------|---------------------------|
A|---------------------------|---------------------------|
E|---------------------------|----------------------x-x--|
B|--0h2-0h2-0h2-0h2-0h3p0--0-|-0h2-0h2-0h2-0h2p0--0-x-x--|

B|-----------------------|
G|-----------------------|
D|-----------------------|
A|--5-5-5-5---5----7--7--|
E|--5-5-5-5---5----7--7--|
B|--3-3-3-3---3----5--5--|

B|---------------------------|---------------------------| x2
G|---------------------------|---------------------------|
D|---------------------------|---------------------------|
A|---------------------------|---------------------------|
E|---------------------------|----------------------x-x--|
B|--0h2-0h2-0h2-0h2-0h3p0--0-|-0h2-0h2-0h2-0h2p0--0-x-x--|



(0.52)

B|---------------------------------------| x4
G|---------------------------------------|
D|---------------------------------------|
A|---------------------------------------|
E|--~9~--~9~--~9~--~9~--~9~--~9~--7-9-2--|
B|--~7~--~7~--~7~--~7~--~7~--~7~--5-7-0--|


(0.00)

B|---------------------------|---------------------------| x8
G|---------------------------|---------------------------|
D|---------------------------|---------------------------|
A|---------------------------|---------------------------|
E|---------------------------|----------------------x-x--|
B|--0h2-0h2-0h2-0h2-0h3p0--0-|-0h2-0h2-0h2-0h2p0--0-x-x--|

B|-----------------------|
G|-----------------------|
D|-----------------------|
A|--5-5-5-5---5----7--7--|
E|--5-5-5-5---5----7--7--|
B|--3-3-3-3---3----5--5--|

B|---------------------------|---------------------------| x2
G|---------------------------|---------------------------|
D|---------------------------|---------------------------|
A|---------------------------|---------------------------|
E|---------------------------|----------------------x-x--|
B|--0h2-0h2-0h2-0h2-0h3p0--0-|-0h2-0h2-0h2-0h2p0--0-x-x--|


(1.58)

B|---------------------------------------| x2
G|---------------------------------------|
D|---------------------------------------|
A|---------------------------------------|
E|--~9~--~9~--~9~--~9~--~9~--~9~--7-9-2--|
B|--~7~--~7~--~7~--~7~--~7~--~7~--5-7-0--|



(2.13)
B|---------------------------|---------------------------| x4
G|---------------------------|---------------------------|
D|---------------------------|---------------------------|
A|---------------------------|---------------------------|
E|---------------------------|----------------------x-x--|
B|--0h2-0h2-0h2-0h2-0h3p0--0-|-0h2-0h2-0h2-0h2p0--0-x-x--|



(2.28)

B|-----------------------|-----------------------| x8
G|-----------------------|-----------------------|
D|-----------------------|-----------------------|
A|-----------------------|-----------------------|
E|-----------------------|--x-x-x-x-x-xx-x-x-xx--|
B|--~0~--~7~--~5~--~10~--|--x-x-x-x-x-xx-x-x-xx--|



(3.04)

B|---------------------------| (To Fade)
G|---------------------------|
D|---------------------------|
A|---------------------------|
E|---------------------------|
B|--0h2-0h2-0h2-0h2-0h3p0--0-|
Tap to rate this tab
# A B C D E F G H I J K L M N O P Q R S T U V W X Y Z