Song name
# A B C D E F G H I J K L M N O P Q R S T U V W X Y Z

Down - Mourn tab

Tabbed by Five

============
Down - Mourn
============

Tuning is Drop B (C#G#EBF#B).

There are already pretty decent Tabs for this song out there,
where the chorus and other parts are tabbed pretty good, but
other parts not so good (in my opinion).
So here's my attempt :) .


# Intro/Chorus
C#|----------------------------------|----------------------------------|
G#|-----------9-9-9-9----------------|-----------9-9-9-9----------------|
E |-------7-7-8-8-8-8----------------|-------7-7-8-8-8-8----------------|
B |-------7-7-6-6-6-6----------------|-------7-7-6-6-6-6----------------|
F#|--3/-5-5-5-6-6-6-6----------------|--3/-5-5-5-6-6-6-6----------------|
B |--------------------3b--0-3-4-3b--|--------------------0-9-12-9-3~---|


|----------------------------------|---------------------------------|
|-----------9-9-9-9----------------|----------9-9-9-9----------------|
|-------7-7-8-8-8-8----------------|----------8-8-8-8----------------|
|-------7-7-6-6-6-6----------------|----------6-6-6-6----------------|
|--3/-5-5-5-6-6-6-6----------------|--3/-5~---6-6-6-6----------------|
|--------------------3b--0-3-4-3b--|-------------------0-9-12-9-3~---|


|------------------------------------|----------------------------------|
|-------------9-9-9-9----------------|-----------9-9-9-9----------------|
|-------------8-8-8-8----------------|-------7-7-8-8-8-8----------------|
|-------7--7--6-6-6-6----------------|-------7-7-6-6-6-6----------------|
|--3/-5-5--5--6-6-6-6----------------|--3/-5-5-5-6-6-6-6----------------|
|----------------------3b--0-3-4-3b--|--------------------0-9-12-9-3~---|
        p  p

                
|---------------------------------|---------------------------------|
|----------9-9-9-9----------------|----------9-9-9-9----------------|
|----------8-8-8-8----------------|----------8-8-8-8----------------|
|----------6-6-6-6----------------|----------6-6-6-6----------------|
|--3/-5~---6-6-6-6----------------|--3/-5~---6-6-6-6----------------|
|-------------------3b--0-3-4-3b--|-------------------0-9-12-9-3~---|


# Outro for the Chorus
|------------------------------------|
|------------------------------------|
|------------------------------------|
|------------------------------------|
|------------6-5-3-------------------|
|--0--6b--0--6-5-3-3/-6-5--3--0-3h-5-|
   p      p
   
   
# Verse x 3 (Watch out to get the rhythm right!)
|-----------------------------------|---------------------------------|
|-----------------------------------|---------------------------------|
|-----------------------------------|---------------------------------|
|-----------------------------------|---------------------------------|
|-----------------------------------|---------------------------------|
|--3b----0--0--0--0--0--0--0-0-3h-5-|--3b----0--0--0/-7--5--3--0-3h-5-|
         p  p  p        p                    p  p  p

                  
|-----------------------------------|---------------------------------|
|-----------------------------------|---------------------------------|
|-----------------------------------|---------------------------------|
|-----------------------------------|---------------------------------|
|--6b----0--0--0--0--0--0--0-0-3h-5-|--3b----0--0--0/-7--5--3--0-3h-5-|
         p  p  p        p                    p  p  p

                 
# Riff I x 2 (Those bends can also be replaced with vibrato)     
|------------------------------------------|------------------------------------------|
|------------------------------------------|------------------------------------------|
|------------------------------------------|------------------------------------------|
|------------------------------------------|------------------------------------------|
|------------------------------------------|------------------------------------------|
|--0--6b--0--6b--0--6b--0--6b-0--6-5-5/-6--|--0--6b--0--6b--0--6b--0--6b-0--6--5--3~--|
   p      p      p      p     p               p      p      p      p     p           


# Shortened Chorus
|----------------------------------|----------------------------------|
|-----------9-9-9-9----------------|-----------9-9-9-9----------------|
|-------7-7-8-8-8-8----------------|-------7-7-8-8-8-8----------------|
|-------7-7-6-6-6-6----------------|-------7-7-6-6-6-6----------------|
|--3/-5-5-5-6-6-6-6----------------|--3/-5-5-5-6-6-6-6----------------|
|--------------------3b--0-3-4-3b--|--------------------0-9-12-9-3~---|


|----------------------------------|---------------------------------|
|-----------9-9-9-9----------------|----------9-9-9-9----------------|
|-------7-7-8-8-8-8----------------|----------8-8-8-8----------------|
|-------7-7-6-6-6-6----------------|----------6-6-6-6----------------|
|--3/-5-5-5-6-6-6-6----------------|--3/-5~---6-6-6-6----------------|
|--------------------3b--0-3-4-3b--|-------------------0-9-12-9-3~---|


# Riff II (Just bend and release the third fret)
|-----------------------------------------------|
|-----------------------------------------------|
|-----------------------------------------------|
|-----------------------------------------------|
|-----------------------------------------------|
|--3p-0h-3p-0-0--0--3p-0h-3p-0-0--0--3p-0h-3p-0-|
              p  p             p  p           

|----------------------------------------------|---------------------------|
|----------------------------------------------|---------------------------|
|----------------------------------------------|---------------------------|
|----------------------------------------------|---------------------------|
|---------------------------------------6~-----|--6-5-3----6--5--3---------|
|--0--0--3p-0h-3p-0-0--0--3p-0-0--0--0--6~--0--|--6-5-3-0--6--5--3--0-3h-5-|
   p  p             p  p       p  p  p      p


# Verse x 3
# Riff I x 2
# Chorus


# Riff II (slightly different at the end)
|-----------------------------------------------|
|-----------------------------------------------|
|-----------------------------------------------|
|-----------------------------------------------|
|-----------------------------------------------|
|--3p-0h-3p-0-0--0--3p-0h-3p-0-0--0--3p-0h-3p-0-|
              p  p             p  p           

|---------------------------------------|
|---------------------------------------|
|---------------------------------------|
|---------------------------------------|
|---------------------------------------|
|--0--0--3p-0h-3p-0-0--0--3p-0-0--0--0--|
   p  p             p  p       p  p  p 


# Riff III
|--------------------|--------------------|--------------------|
|--------------------|--------------------|--------------------|
|--------------------|--------------------|--------------------|
|--------------------|--------------------|--------------------|
|--0----5---6--------|--0----5---6--------|--0----5---6--------|
|--0----5---6--------|--0----5---6--------|--0----5---6--------|


|--------------------|--------------------|----------------------------|
|--------------------|--------------------|----------------------------|
|--------------------|--------------------|----------------------------|
|--------------------|--------------------|----------------------------|
|--0----5---6--------|--0----5---2--------|--0----5---2-----------3-2--|
|--0----5---6--------|--0----5---2--------|--0----5---2--2--2--2--3-2--|
                                                         p  p  p

|-----------------------------|----------------------------|
|-----------------------------|----------------------------|
|-----------------------------|----------------------------|
|-----------------------------|----------------------------|
|--0----5---2-----------------|--0----5---2-----------3-2--|
|--0----5---2--0-0-0-0-0---0--|--0----5---2--2--2--2--3-2--|
               p p p p p   p                 p  p  p

                          
# Riff I x 2             
# Chorus (full length)

Finish the last note of the chorus (third fret, low E-String) with a long
and heavy bend/release, followed by strumming the low strings.



Have fun, Five :]



Legend
======
\ ... Slide down
/ ... Slide up
h ... Hammer-On
~ ... Vibrato
p ... Palm-Mute
Tap to rate this tab
 
# A B C D E F G H I J K L M N O P Q R S T U V W X Y Z