Guitaretab - guitar tabs
Song name
# A B C D E F G H I J K L M N O P Q R S T U V W X Y Z

Down - In The Thrall Of It All tab

basic intro but has minor changes in the song
e|---------------------------------------------------------------------------|
B|---------------------------------------------------------------------------|
G|------12-------------------------------------------------------------------|
D|------12---14--12------12--------------------------------------------------|
A|-------------------14------14-13-12----------------------------------------|
E|--0-0-------------------------------15-------------------------------------|
[ Tab from: http://www.guitaretab.com/d/down/96031.html ]
chorus
e|---------------------------------------------------------------------------|
B|---------------------------------------------------------------------------|
G|---------------------------------------------------------------------------|
D|--12/14--17\16-16-16/17-17-17/19-------------------------------------------|
A|--10/12--15\14-14-14/15-15-15/17-------------------------------------------|
E|---------------------------------------------------------------------------|

bridge
e|---------------------------------------------------------------------------|
B|---------------------------------------------------------------------------|
G|---------------------------------------------------------------------------|
D|--2------2------2------2------2------2---2--12-----------------------------|
A|--2--.-.-2--.-.-2--.-.-2--.-.-2--.-.-2-.-2--12-----------------------------|
E|--0--0-0-0--0-0-0--0-0-0--0-0-0--0-0-0-0-0--10-----------------------------|

e|---------------------------------------------------------------------------|
B|---------------------------------------------------------------------------|
G|---------------------------------------------------------------------------|
D|-12--12/14--14\11--11/10--10\10--10/12-12-12\9--9--11----------------------|
A|-12--12/14--14\11--11/10--10\10--10/12-12-12\9--9--11----------------------|
E|-10--10/12--12\9---9-/12--12\8---8-/10-10-10\7--7--9-----------------------|

Related for In The Thrall Of It All tab
Advertisement will be closed in 10 seconds