Song name
# A B C D E F G H I J K L M N O P Q R S T U V W X Y Z

Down - Beautifully Depressed tab

down - beautifully depressed - Tabbed by; Vinz in (Neckfracture)
- some help to get started with the song ! /Vinz

 |---------------------------------------|
 |---------------------------------------|
 |---------------------------------------|
b|---------------------------------------|
 |0--0--3----0--0--3----0--0--5------12\-|
b|0--0--3----0--0--3----0--0--5------12\-|

 |------------------------------------------------|
 |----------------------8-------------------------|
 |-----------------------7-5----------------------|
b|---------------------------7-5-3--3-0-----------|
 |0--0--3----0--0--3-------------------3-0--------|
b|0--0--3----0--0--3-----------------------5-3----| intro
_____________________________________________________________

 |---------------------------------------|
 |---------------------------------------|
 |---------------------------------------|
b|-----------x-x-5----x-5/7--------------|
 |0--0--3----x-x-3----x-3/5--------------|
b|0--0--3--------------------------------|  main riff
_____________________________________________________________

 |----------------------------------------|
 |----------------------------------------|
 |----------------0h2-0-------------------|
b|-----------x-x--------3-0---------------|
 |0--0--3----x-x--------------------------|
b|0--0--3---------------------------------|   alt ending to chours - etc

chours
 |------------------------------------------------------------|
 |------------------------------------------------------------|
 |------------------------------------------------------------|
b|5-5-5-5-5--x-x--x---x-x-4-4-4-4-4----3-3-3-3-3--------------|
 |3-3-3-3-3--x-x--x---x-x-2-2-2-2-2----1-1-1-1-1--------------|
b|------------------------------------------------------------|
back to main riff in most cases
______________________________________________________________

 |----------------------------------------------|
 |----------------------------------------------|
 |----------------------------------------------|
b|-------------------6--------------------------|
 |0------------------4--------------4-5---------|
b|0---------------------------------------------|     -> etc...

 |---------------------------------------|
 |---------------------------------------|
 |---------------------------------------|
b|---------------------------------------|
 |---------3-2----2-3--5-3-0-------------|
b|0--0-2-3-------------------5-3-5^--5-3-|

-something similar-
_____________________________________________________________

outro -

 |---------------------------------------|
 |---------------------------------------|
 |---------------------------------------|
b|---------------------------------------|
 |0--0--3----0--0--3----0--0--5------12\-|
b|0--0--3----0--0--3----0--0--5------12\-|

Thats basicly all the riffs there is, but without all of the alt endings and 
improvised) wich i don't have time to hear out.

a tip; go ahead and improvise those solos yourself! will be of great fun ;)

please note that this song aint tabbed on detail, i'm to lazy to hear out all of the tones,
so some of the riffs may not be exacily as played, but instead something similar to help
you hearing the real tones out yourself!

if you can be arsed, go ahead and post new versions with improvements for this tab!

gl //Vinz (Neckfracture)
Tap to rate this tab
 
# A B C D E F G H I J K L M N O P Q R S T U V W X Y Z