Song name
# A B C D E F G H I J K L M N O P Q R S T U V W X Y Z

Down - Nod tab

Help us improve GuitareTab! Take a short survey!
-------------------------------------------------------------------------------
			     N.O.D. - Down
-------------------------------------------------------------------------------
Tabbed by: KongKazaa
Email: kaszasjake@hotmail.com

Tuning: Drop B


INTRO


e|---------------------------------------------------------------------------|
B|---------------------------------------------------------------------------|
G|---------------------------------------------------------------------------|
D|-77--5h7p5-----5h7p5--3h5p3--2h3p2------77--5h7p5-----7-5-3----------------|
A|------------7-----------------------5--------------7---------7-------------|
E|---------------------------------------------------------------------------|


e|---------------------------------------------------------------------------|
B|---------------------------------------------------------------------------|
G|---------------------------------------------------------------------------|
D|--------------------------------------------------------5---3--------------|
A|-----5-----5-----5---3h5p3--2h3p2------5-----5-----5----5---3--------------|
E|-0-0---0-0---0-0-------------------0-0---0-0---0-0------5---3--------------| . .   . . 
 . .                   . .   . .   . .


e|---------------------------------------------------------------------------|
B|---------------------------------------------------------------------------|
G|---------------------------------------------------------------------------|
D|------0--0----------------5--3---------------------------------------------|
A|------0--0----------------5--3---------------------------------------------|
E|-0-0--0--0----------0000--5--3---------------------------------------------| . .       
        ....


| /  slide up
| \  slide down
| h  hammer-on
| p  pull-off
| ~  vibrato
| +  harmonic
| x  Mute note
===============================================================================
Related for Nod tab