Song name
# A B C D E F G H I J K L M N O P Q R S T U V W X Y Z

Downface - Alone tab

----------------------------------------------------------------------------
			     ALONE - Downface
----------------------------------------------------------------------------
Tabbed by: James
Email: the.master.ofpuppets@hotmail.com

Tuning: standard

good song aye, also beleived to be by Mad Season, Layne & Eddie, Tool & Creed and Alice 
Chains; this song is by Downface

Guitar I:
e|-------------------------------------------------------------------------|
B|--------------------0--0-0-0---1--------------------3--3-3-3-------------|
G|----0--0-0-0---0----2--2-2-2---0------0--0-0-0--0---2--2-2-2----0--------|
D|----2--2-2-2---0----2--2-2-2---2------2--2-2-2--0---x--x-x-x----0--------|
A|----2--2-2-2---2----0--0-0-0---3------2--2-2-2--2---x--x-x-x----2--------|
E|----0--0-0-0---3----------------------0--0-0-0--3---2--2-2-2----3--------|

Guitar II:
e|----------3-0-3-----------------------------3-0-3----------3-0-3---------|
B|--------------------------3-0-3------------------------------------------|
G|-------------------------------------------------------------------------|
D|-------------------------------------------------------------------------|
A|-------------------------------------------------------------------------|
E|-------------------------------------------------------------------------|


Guitar I:
e|-------------------------------------------------------------------------|
B|--------------------0--0-0-0---1--------------------3--3-3-3-------------|
G|----0--0-0-0---0----2--2-2-2---0------0--0-0-0--0---2--2-2-2----0--------|
D|----2--2-2-2---0----2--2-2-2---2------2--2-2-2--0---x--x-x-x----0--------|
A|----2--2-2-2---2----0--0-0-0---3------2--2-2-2--2---x--x-x-x----2--------|
E|----0--0-0-0---3----------------------0--0-0-0--3---2--2-2-2----3--------|

Guitar II:
e|----------3-0-3-----------------------------3-0-3----------3-0-3---------|
B|--------------------------3-0-3------------------------------------------|
G|-------------------------------------------------------------------------|
D|-------------------------------------------------------------------------|
A|-------------------------------------------------------------------------|
E|-------------------------------------------------------------------------|


Verse 1:
e|-------------------------------------------------------------------------|
B|--------------------0--0-0-0---1-1-1----------------3--3-3-3-------------|
G|----0--0-0-0---0----2--2-2-2---0-0-0--0--0-0-0--0---2--2-2-2----0--------|
D|----2--2-2-2---0----2--2-2-2---2-2-2--2--2-2-2--0---x--x-x-x----0--------|
A|----2--2-2-2---2----0--0-0-0---3-3-3--2--2-2-2--2---x--x-x-x----2--------|
E|----0--0-0-0---3----------------------0--0-0-0--3---2--2-2-2----3--------|
     It's been....bottom of the hill             she died of a broken heart

e|-------------------------------------------------------------------------|
B|--------------------0--0-0-0---1-1-1----------------3--3-3-3-------------|
G|----0--0-0-0---0----2--2-2-2---0-0-0--0--0-0-0--0---2--2-2-2----0--------|
D|----2--2-2-2---0----2--2-2-2---2-2-2--2--2-2-2--0---x--x-x-x----0--------|
A|----2--2-2-2---2----0--0-0-0---3-3-3--2--2-2-2--2---x--x-x-x----2--------|
E|----0--0-0-0---3----------------------0--0-0-0--3---2--2-2-2----3--------|
                She told me... the past  Drinking from a broken glass

Chorus:
e|-------------------------------------------------------------------------|
B|--------------------0--0-0-0---1-1-1----------------3--3-3-3-------------|
G|----0--0-0-0---0----2--2-2-2---0-0-0--0--0-0-0--0---2--2-2-2----0--------|
D|----2--2-2-2---0----2--2-2-2---2-2-2--2--2-2-2--0---x--x-x-x----0--------|
A|----2--2-2-2---2----0--0-0-0---3-3-3--2--2-2-2--2---x--x-x-x----2--------|
E|----0--0-0-0---3----------------------0--0-0-0--3---2--2-2-2----3--------|
      I'M ALONEEEEEEEEEEEEEEEEEEEEEEEEEE             Now I.....face the cold
                   I never want to be alone      Now I turn to face the cold

e|-------------------------------------------------------------------------|
B|--------------------0--0-0-0---1-1-1----------------3--3-3-3-------------|
G|----0--0-0-0---0----2--2-2-2---0-0-0--0--0-0-0--0---2--2-2-2----0--------|
D|----2--2-2-2---0----2--2-2-2---2-2-2--2--2-2-2--0---x--x-x-x----0--------|
A|----2--2-2-2---2----0--0-0-0---3-3-3--2--2-2-2--2---x--x-x-x----2--------|
E|----0--0-0-0---3----------------------0--0-0-0--3---2--2-2-2----3--------|
      I'M ALONEEEEEEEEEEEEEEEEEEEEEEEEEE             Now I..to travel home
                   I never want to be alone      Now I turn to travel home


Verse 2:
e|-------------------------------------------------------------------------|
B|--------------------0--0-0-0---1-1-1----------------3--3-3-3-------------|
G|----0--0-0-0---0----2--2-2-2---0-0-0--0--0-0-0--0---2--2-2-2----0--------|
D|----2--2-2-2---0----2--2-2-2---2-2-2--2--2-2-2--0---x--x-x-x----0--------|
A|----2--2-2-2---2----0--0-0-0---3-3-3--2--2-2-2--2---x--x-x-x----2--------|
E|----0--0-0-0---3----------------------0--0-0-0--3---2--2-2-2----3--------|
                I walked down..end today   Just to catch those last few rays


e|-------------------------------------------------------------------------|
B|--------------------0--0-0-0---1-1-1----------------3--3-3-3-------------|
G|----0--0-0-0---0----2--2-2-2---0-0-0--0--0-0-0--0---2--2-2-2----0--------|
D|----2--2-2-2---0----2--2-2-2---2-2-2--2--2-2-2--0---x--x-x-x----0--------|
A|----2--2-2-2---2----0--0-0-0---3-3-3--2--2-2-2--2---x--x-x-x----2--------|
E|----0--0-0-0---3----------------------0--0-0-0--3---2--2-2-2----3--------|
   I held out my h--ands..waved goodbye   I turn my eyes to the sky


Chorus:
e|-------------------------------------------------------------------------|
B|--------------------0--0-0-0---1-1-1----------------3--3-3-3-------------|
G|----0--0-0-0---0----2--2-2-2---0-0-0--0--0-0-0--0---2--2-2-2----0--------|
D|----2--2-2-2---0----2--2-2-2---2-2-2--2--2-2-2--0---x--x-x-x----0--------|
A|----2--2-2-2---2----0--0-0-0---3-3-3--2--2-2-2--2---x--x-x-x----2--------|
E|----0--0-0-0---3----------------------0--0-0-0--3---2--2-2-2----3--------|
      I'M ALONEEEEEEEEEEEEEEEEEEEEEEEEEE             Now I.....face the cold
                   I never want to be alone      Now I turn to face the cold

e|-------------------------------------------------------------------------|
B|--------------------0--0-0-0---1-1-1----------------3--3-3-3-------------|
G|----0--0-0-0---0----2--2-2-2---0-0-0--0--0-0-0--0---2--2-2-2----0--------|
D|----2--2-2-2---0----2--2-2-2---2-2-2--2--2-2-2--0---x--x-x-x----0--------|
A|----2--2-2-2---2----0--0-0-0---3-3-3--2--2-2-2--2---x--x-x-x----2--------|
E|----0--0-0-0---3----------------------0--0-0-0--3---2--2-2-2----3--------|
      I'M ALONEEEEEEEEEEEEEEEEEEEEEEEEEE             Now I..to travel home
                   I never want to be alone      Now I turn to travel home


Solo: Over same chords

    2:08                                                2:17
e|-------------------------------------------------------------------------|
B|-------------------------------------------------------------------------|
G|-----------------------------------------5-7b(9)r7--7b(9)r7-5------------|
D|---7b(9)~~~~r(7)-7---5-7^-5-----5-----------------------------7b(9)-5-5--|
A|-------------------------------7-7-5---7---------------------------------|
E|-------------------------------------------------------------------------|
                                   P.M..

     2:21                                          2:29
e|-------------------------------------------------------------------------|
B|-------------------------------------------------------------------------|
G|-------------------------------------------------------------------------|
D|------5--7--7b(9)r7-5-5~~~--7--5-----------------------------------------|
A|---7-----------------------------7--5^---5-----5-7-5---------------------|
E|---------------------------------------7---------------7-5--5--5^--3-----|


               2:33
e|-------------------------------------------------------------------------|
B|-------------------------------------------------------------------------|
G|-------------------------------------------------------------------------|
D|-------------------------------------------------------------------------|
A|-------------------------------------------------------------------------|
E|---3\2--2--2-2/3--3~~~~~~~~~~~~~~~~~~------------------------------------|


Bridge: Quietly i guess
Guitar I:
e|-------------------------------------------------------------------------|
B|--------------------0--0-0-0---1-1-1----------------3--3-3-3-------------|
G|----0--0-0-0---0----2--2-2-2---0-0-0--0--0-0-0--0---2--2-2-2----0--------|
D|----2--2-2-2---0----2--2-2-2---2-2-2--2--2-2-2--0---x--x-x-x----0--------|
A|----2--2-2-2---2----0--0-0-0---3-3-3--2--2-2-2--2---x--x-x-x----2--------|
E|----0--0-0-0---3----------------------0--0-0-0--3---2--2-2-2----3--------|

Guitar II:
e|----------3-0-3-----------------------------3-0-3----------3-0-3---------|
B|--------------------------3-0-3------------------------------------------|
G|-------------------------------------------------------------------------|
D|-------------------------------------------------------------------------|
A|-------------------------------------------------------------------------|
E|-------------------------------------------------------------------------|
                        She'll come back to me   She'll come back to me

Guitar I:
e|-------------------------------------------------------------------------|
B|--------------------0--0-0-0---1-1-1----------------3--3-3-3-------------|
G|----0--0-0-0---0----2--2-2-2---0-0-0--0--0-0-0--0---2--2-2-2----0--------|
D|----2--2-2-2---0----2--2-2-2---2-2-2--2--2-2-2--0---x--x-x-x----0--------|
A|----2--2-2-2---2----0--0-0-0---3-3-3--2--2-2-2--2---x--x-x-x----2--------|
E|----0--0-0-0---3----------------------0--0-0-0--3---2--2-2-2----3--------|

Guitar II:
e|----------3-0-3-----------------------------3-0-3----------3-0-3---------|
B|--------------------------3-0-3------------------------------------------|
G|-------------------------------------------------------------------------|
D|-------------------------------------------------------------------------|
A|-------------------------------------------------------------------------|
E|-------------------------------------------------------------------------|
                     All Alone in this misery  She'll come back to me


Second Bridge thing:
e|-------------------------------------------------------------------------|
B|--------------------0--0-0-0---1-1-1----------------3--3-3-3-------------|
G|----0--0-0-0---0----2--2-2-2---0-0-0--0--0-0-0--0---2--2-2-2----0--------|
D|----2--2-2-2---0----2--2-2-2---2-2-2--2--2-2-2--0---x--x-x-x----0--------|
A|----2--2-2-2---2----0--0-0-0---3-3-3--2--2-2-2--2---x--x-x-x----2--------|
E|----0--0-0-0---3----------------------0--0-0-0--3---2--2-2-2----3--------|
      I held out my hands to the light ..watched it die I... part to blame

e|-------------------------------------------------------------------------|
B|--------------------0--0-0-0---1-1-1----------------3--3-3-3-------------|
G|----0--0-0-0---0----2--2-2-2---0-0-0--0--0-0-0--0---2--2-2-2----0--------|
D|----2--2-2-2---0----2--2-2-2---2-2-2--2--2-2-2--0---x--x-x-x----0--------|
A|----2--2-2-2---2----0--0-0-0---3-3-3--2--2-2-2--2---x--x-x-x----2--------|
E|----0--0-0-0---3----------------------0--0-0-0--3---2--2-2-2----3--------|
     and I've done my time and I~~~~Never Wanna Spend My Life Aloneeeeeeeee


Chorus:
e|-------------------------------------------------------------------------|
B|--------------------0--0-0-0---1-1-1----------------3--3-3-3-------------|
G|----0--0-0-0---0----2--2-2-2---0-0-0--0--0-0-0--0---2--2-2-2----0--------|
D|----2--2-2-2---0----2--2-2-2---2-2-2--2--2-2-2--0---x--x-x-x----0--------|
A|----2--2-2-2---2----0--0-0-0---3-3-3--2--2-2-2--2---x--x-x-x----2--------|
E|----0--0-0-0---3----------------------0--0-0-0--3---2--2-2-2----3--------|
      I'M ALONEEEEEEEEEEEEEEEEEEEEEEEEEE             Now I.....face the cold
                   I never want to be alone      Now I turn to face the cold

e|-------------------------------------------------------------------------|
B|--------------------0--0-0-0---1-1-1----------------3--3-3-3-------------|
G|----0--0-0-0---0----2--2-2-2---0-0-0--0--0-0-0--0---2--2-2-2----0--------|
D|----2--2-2-2---0----2--2-2-2---2-2-2--2--2-2-2--0---x--x-x-x----0--------|
A|----2--2-2-2---2----0--0-0-0---3-3-3--2--2-2-2--2---x--x-x-x----2--------|
E|----0--0-0-0---3----------------------0--0-0-0--3---2--2-2-2----3--------|
      I'M ALONEEEEEEEEEEEEEEEEEEEEEEEEEE             Now I..to travel home
                   I never want to be alone      Now I turn to travel home


| /  slide up
| \  slide down
| h  hammer-on
| p  pull-off
| ~  vibrato
| +  harmonic
| x  Mute note
============================================================================
Tap to rate this tab
# A B C D E F G H I J K L M N O P Q R S T U V W X Y Z