Downface - Alone Acoustic chords

Highlighted       Show chord diagrams
-------------------------------------------------------------------------------
			    Alone - Downface
-------------------------------------------------------------------------------
Tabbed by:Allan Copuyoc
Email:allan_copuyoc@yahoo.com.ph

Tuning: Standard


This is actually the progression to the whole song.

   Em or Em7    G    F#/Dsus     C      Em7   G      F#/D    G
e|--------3-----3--------3--------0-------3----3------2-------3-----|
B|--------3-----3--------3--------1-------3----3------3-------3-----|
G|--------0-----0--------2--------0-------0----0------2-------0-----|
D|--2-----2-----0--------0--------2-------2----0------0-------0-----|
A|--2-----2-----2--------x--------3-------2----2------x-------2-----|
E|--0-----0-----3--------2----------------0----3------2-------3-----|


use em or em7 depending on which part of the song you are in

Lyrics: 

It's been a long day
at the bottom of the hill.
She died of a broken heart.
She told me I was living in the past,
drinking from a broken glass.
I'm alone
I never wanna be alone.
Now I..Now I turn to face the cold.
I'm alone
I never wanna be alone.
Now I..Now I turn to travel home.
I walked down to the other end today,
just to catch those last few rays.
I held out my hand
and slowly waved goodbye.
I turned now my eyes up to the sky.
I'm alone
I never wanna be alone.
Now I..Now I turn to face the cold.
I'm alone
I never wanna be alone.
Now I..Now I turn to travel home.
She'll come back to me.
She'll come back to me.
All alone in this misery.
She'll come back to me.
I held out my hands into the light
and I watched it die.
I know that I was part to blame.
I've done my time
and I never want to spend my life alone.
I'm alone
I never wanna be alone.
Now I...Now I turn to face the cold.
I'm alone
I never wanna be alone.
Now I..Now I turn to travel home.
Tap to rate this tab
 
# A B C D E F G H I J K L M N O P Q R S T U V W X Y Z