Song name
# A B C D E F G H I J K L M N O P Q R S T U V W X Y Z

Downfall - Get With It tab

----------------------------------------------------------------------------
			     Get With It-Downfall
----------------------------------------------------------------------------
Tabbed by:Matt Dale
Email:wrdales@comcast.net

Tuning:standard

intro- listen to know how many times to repeat

e|---------------------------------------------------------------------|
B|---------------------------------------------------------------------|
G|----7x-5x------------------7x-5x-----5~--7~--------------------------|
D|-7x-7x-5x-7x---2 times--7x-7x-5x-5~--5~--7~--1 time------------------|
A|-7x-5x-3x-7x-----then---7x-5x-3x-5~--3~--5~--------------------------|
E|-5x-------5x------------5x-------3~----------------------------------|

verse- listen to know how many times to repeat

e|-----------------------------------||-------------------5-5-5-5--7-7-7-7-|
B|-----------------------------------||-------------------5-5-5-5--7-7-7-7-|
G|------------------7-7-7-7--5-5-5-5-||-------------------3-3-3-3--5-5-5-5-|
D|-7-7-7-7-7-7-7-5--7-7-7-7--5-5-5-5-||--5-5-5-5-5-5-5-5-------------------|
A|-7-7-7-7-7-7-7-5--5-5-5-5--3-3-3-3-||--5-5-5-5-5-5-5-5-------------------|
E|-5-5-5-5-5-5-5-7-------------------||--3-3-3-3-3-3-3-3-------------------|

chorus- ska part/mute downstroke play upstroke - listen to know how many times to repeat

e|------------||----------------------------------------------------|
B|-------7--5-||----------------------------------------------------|
G|--6-6--7--5-||----------------------------------------------------|
D|--7-7--7--5-||--3~------------------------------------------------|
A|--7-7--5--3-||--3~------3-3-3-3-5-3-------------------------------|
E|--5-5-------||--5~--3-3--------------5-3--------------------------|

| /  slide up
| \  slide down
| h  hammer-on
| p  pull-off
| ~  vibrato
| +  harmonic
| x  Mute note
============================================================================


they broke up in 1989 but were formed with tim armstrong from rancid, operation ivy and 
adn matt free man from operation ivy and rancid they have no website
Tap to rate this tab
# A B C D E F G H I J K L M N O P Q R S T U V W X Y Z