Song name
# A B C D E F G H I J K L M N O P Q R S T U V W X Y Z

Downfall - New Regulations tab

 	

-------------------------------------------------------------------------------
                             NEW REGULATIONS - Downfall
-------------------------------------------------------------------------------

By: The Conventional Conformist  

 Intro:
e|----------------------------------------------------------------------------|
B|----------------------------------------------------------------------------|
G|-----6-----9-7-6------6------------------------------6-----9--7--6----------|
D|--7-----7--------9-7-----7------4-----7---5--4---7------7-----------7-------|
A|-----------------------------5-----5----------------------------------------|
E|----------------------------------------------------------------------------|

e|----------------------------------------------------------------------------|
B|----------------------------------------------------------------------------|
G|-7--6-------------------------------------6--7--6----------6--7--9---7--6---|
D|-------7------6---7---9---7---6------7-7------------7-7-7------------------7|
A|-----------7----------------------------------------------------------------|
E|----------------------------------------------------------------------------|
                                "Here We Go"

e|----------------------------------------------------------------------------|
B|----------------------------------------------------------------------------|
G|--7--6-----------6--7--6----11-9-11-9-11-9-11-9-11---9--7--6----------------|
D|--------7---7-7-------------------------------------------------------------|
A|----------------------------------------------------------------------------|
E|----------------------------------------------------------------------------|

e|----------------------------------------------------------------------------|
B|----------------------------------------------------------------------------|
G|-------------------------------------------------------------6--7--9--7--6--|
D|--------4--5--7--5--4-----5--4-----------6--6--7--9----7-7-7----------------|
A|--5--5-----------------5--------5--7-7-7------------------------------------|
E|----------------------------------------------------------------------------|

e|----------------------------------------------------------------------------|
B|----------------------------------------------------------------------------|
G|-----7--6------------8--9-11------------------------------------------------|
D|--7--------7--9-9-9---------------------------------------------------------|
A|----------------------------------------------------------------------------|
E|----------------------------------------------------------------------------|

Another Solo:
e|----------------------------------------------------------------------------|
B|----------------------------------------------------------------------------|
G|------6--7--6----------6--7--9--7--6-------------6--7--6--------------------|
D|--7-7-----------7-7-7-----------------7-----7-7-----------------------------|
A|----------------------------------------------------------------------------|
E|----------------------------------------------------------------------------|

e|----------------------------------------------------------------------------|
B|----------------------------------------------------------------------------|
G|--11--9--7--9---9--7--6--7--7--6--7--9--7--6--7--6--7--11--9--7--7-6--------|
D|---------------------------------------------------------------------7------|
A|----------------------------------------------------------------------------|
E|----------------------------------------------------------------------------|

e|----------------------------------------------------------------------------|
B|----------------------------------------------------------------------------|
G|--9-7-6----6-7-6------------------------------------------------------------|
D|--------7--------7----------------------------------------------------------|
A|----------------------------------------------------------------------------|
E|----------------------------------------------------------------------------|

Outro:
e|----------------------------------------------------------------------------|
B|----------------------------------------------------------------------------|
G|--9--9-7-7-6-7-6--------6--7--9---9--9--9--7--7---7--7--7--6-----6--7--6----|
D|-----------------7--7-7---------------------------------------7------------7|
A|----------------------------------------------------------------------------|
E|----------------------------------------------------------------------------|

This is the chord progression used throughout the whole song (Starting at the
"Here We Go" in the intro till the end)
e|-----5-----7-----5-----7----------------------------------------------------|
B|-----5-----9-----5-----7----------------------------------------------------|
G|-----6-----9-----6-----8----------------------------------------------------|
D|-----7-----9-----7-----9----------------------------------------------------|
A|-----7-----7-----7-----9----------------------------------------------------|
E|-----5-----7-----5-----7----------------------------------------------------|

===============================================================================




Send tab to your friend:
your name: 	
to (name): 	
to (email): 	
	
Tap to rate this tab
 
# A B C D E F G H I J K L M N O P Q R S T U V W X Y Z