Guitaretab - guitar tabs
Song name
# A B C D E F G H I J K L M N O P Q R S T U V W X Y Z

Downset - Against The Spirits tab

Tuning is drop C#. (Drop D with the whole guitar half a step lower)
Don't take too much notice of shitty attempts at rhythm. Use your own ears.


Intro is feedback followed by:
|---------------------------|
|---------------------------|
|----5--5--5----------------|
|----5--5--5--5--7----5--7--|
|----3--3--3--5--7----5--7--|
|-------------5--7----5--7--|

Main verse riff:

|-----------------------------------------------------------|
|-----------------------------------------------------------|
|---------8-------------------------------------------------|
|---------8------5-5--5----------------8------5-5--5--------|
|--5-7--7-6-7--7-3-3--3-3-5--5--5-7--7-6-7--7-3-3--3-3-5--5-|
|--5-7--7---7--7--------3-5--5--5-7--7---7--7--------3-5--5-|


Chorus: "Your world is against the spirits...."
|----------------------------|
|----------------------------|
|----------------------------|
|--8------8------8------5----| x 4
|--6-7--7-6-7--7-6-7--7-3-5--|
|----7--7---7--7---7--7---5--|

During bass interlude:

|----------|
|----------|
|----------|
|---7------|
|---7------|
|---7------|

Bridge: ("I'll gladly detatch my soul from the lies...")
[ Tab from: http://www.guitaretab.com/d/downset/107102.html ]
|-----------------------------------------------------|
|-----------------------------------------------------|
|-----------------------------------------------------|
|-----------------------------------------------------|
|--10--10--10--9--9--9--10--10--0--0--0--0--0--0--0--0|
|--10--10--10--9--9--9--10--10--0--0--0--0--0--0--0--0|

|-----------------------------------------------------|
|-----------------------------------------------------|
|-----------------------------------------------------|
|-------------------------------------------3----5----|
|--10--10--10--9--9--9--10--10--0--0--0--0--3----5----|
|--10--10--10--9--9--9--10--10--0--0--0--0--3----5----|

Play bridge twice palm muted (apart from the last 2 notes) then once with no palm muting 
up with this slight variation:

|-----------------------------------------------------|
|-----------------------------------------------------|
|-----------------------------------------------------|
|-----------------------------------------------------|
|--10--10--10--9--9--9--10--10--0--0--0--0--0--0--0--0|
|--10--10--10--9--9--9--10--10--0--0--0--0--0--0--0--0|

|---------------------------------|
|---------------------------------|
|---------------------------------|
|---------------------------------|
|--10--10--10--9--9--9--10--10--0-|
|--10--10--10--9--9--9--10--10--0-|


Then these 2 notes which lead into the main verse riff again:

|---------|
|---------|
|---------|
|---------|
|--10--9--|
|--10--9--|


That's my first ever attempt at a tab. There's a few things I can improve when I figure 
how to use more symbols.
Contact me if you want to request any more Downset songs.
Related for Against The Spirits tab
Advertisement will be closed in 10 seconds