Song name
# A B C D E F G H I J K L M N O P Q R S T U V W X Y Z

Downside Up - Silence Remains tab

Down Side Up
Silence Remains
5-2-2002

Verse:

Distortion

E |------------------|
B |------------------|
G |------------------|
D |---3---3---3------|
A |-2---3---4--------|
D#|------------------|

Chorus:

Heavy Distortion

E |-----------------------|
B |-----------------------|
G |-----------------------|
D |--2--2---3--3--3---4---|
A |--2--2---3--3--3-------|
D#|--2--2---3--3--3-------|

Bridge:

Heavy Distortion
Mute

E |----------------------------|
B |----------------------------|
G |----------------------------|
D |--2-2-2-2-2-1--4-4-4-4-4-3--|
A |--2-2-2-2-2-1--4-4-4-4-4-3--|
D#|--2-2-2-2-2-1--4-4-4-4-4-3--|

Repeat 3 times

Then 4th time:

E |----------------------|
B |----------------------|
G |----------------------|
D |--2-2-2-2-2-1--5-5-5--|
A |--2-2-2-2-2-1--5-5-5--|
D#|--2-2-2-2-2-1--5-5-5--|

Outro:

Flanger

E |------------------|
B |------------------|
G |------------------|
D |---3---3---3------|
A |-2---3---4--------|
D#|------------------|
Tap to rate this tab
# A B C D E F G H I J K L M N O P Q R S T U V W X Y Z