Song name
# A B C D E F G H I J K L M N O P Q R S T U V W X Y Z

Downstait - I Came To Play tab

-------------------------------------------------------------------------------
			     I Came To Play - Downstait
-------------------------------------------------------------------------------
Tabbed by:wweguitarman
Email:Crossfire32G@gmail.com

Tuning:D
INTRO
e|----------------------------------------------------------------------------|
B|----------------------------------------------------------------------------|
G|--------7-----11---------5--------------------------------------------------|
D|XX-XX-----X8-------X14------X8----------------------------------------------|
A|XX-XX---5-----8----------3--------------------------------------------------|
D|XX-XX-----------------------------------------------------------------------|
Intro continued/Chorus
e|--------------------------------------------------------------------------|
B|--------------------------------------------------------------------------|
G|--------------------------------------------------------------------------|
D|12------8------5------7------------6-------8------------------------------|
A|12--X8--8--X8--5--X8--7--X8--X3then6--X16--8--X16-------------------------|
D|12------8------5------7------------6-------8------------------------------|
the 12 can be subsituted with 0 also         pm
Verse 1
e|--------------------------------------------------------------------------|
B|--------------------------------------------------------------------------|
G|----------5---------------------------------------------------------------|
D|00-00-00--5--------------repeatX4-----------------------------------------|
A|00-00-00--3---------------------------------------------------------------|
D|00-00-00-----353----------------------------------------------------------|
pre chorus
e|--------------------------------------------------------------------------|
B|--------------------------------------------------------------------------|
G|--------------------------------------------------------------------------|
D|3------10-----12--10--12--13--12--13--12--10------------------------------|
A|3--X8--10--X8-12--10--12--13--12--13--12--10--X2fast----------------------|
D|3------10-----12--10--12--13--12--13--12--10------------------------------|
Chorus then
Verse 2
e|--------------------------------------------------------------------------|
B|--------------------------------------------------------------------------|
G|--------------------------------------------------------------------------|
D|--------------------------------------------------------------------------|
A|--------------------------------------------------------------------------|
D|87578757875710757X2----thenX2nonpm----------------------------------------|
  pmpmpmpmpmpmpmpmpm
Chorus
then solo which will be done later look under I Came To Play Solo if you want the solo. sorry
Do Chorus again then
e|--5-----6-----------------------------------------------------------------|
B|36---36--------till it fades ---------------------------------------------|
G|--------------------------------------------------------------------------|
D|--------------------------------------------------------------------------|
A|--------------------------------------------------------------------------|
D|--------------------------------------------------------------------------|
Thanks For Viewing hope it helps Solo will be up soon
************************************
| pm  palm mute
| /   slide up
| \   slide down
| h   hammer-on
| p   pull-off
| ~   vibrato
| +   harmonic
| x   Mute note
| b   Bend
| pb  Pre-bend
| br  Bend release
| pbr Pre-bend release
| brb Bend release bend
| pm  palm mute
************************************
Tap to rate this tab
# A B C D E F G H I J K L M N O P Q R S T U V W X Y Z