Song name
# A B C D E F G H I J K L M N O P Q R S T U V W X Y Z

Downtown Sasquatch - What I Know tab

Rebelution - What I know
The intro to this song actually has 2 guitars playing this so this is only guitar 1.
h=HAMMER
p=PULL
s=SLIDE

Intro Cords

E -------------4--h5-p4-p2---------------------|
B --4-h5--5----2---2--2--2--5--4-------4----2--|
G --4-h6--6---------------------------4--4--2--|
D --4-h6--6--2----------------------4-------2--|
A --4--4--4-----------------------2---------0--|
E ---------------------------------------------|

Intro Solo

E ------------------------------------------------------------------------|
B -------------------5--4--4--5--s7--9--10--9--7--5--4--h5--s4--6---------|
G -------------4--6-----------------------------------------------------4-|
D -----2--4--s6---------------------------------------------------4--s6---|
A 2--4--------------------------------------------------------------------|
E ------------------------------------------------------------------------|

E ---------------------------------|
B ---------------------------------|
G ---------------------------------|
D --4--2---------------------------|
A -------4--2----------------------|
E ---------------------------------|
Tap to rate this tab
 
# A B C D E F G H I J K L M N O P Q R S T U V W X Y Z