Song name
# A B C D E F G H I J K L M N O P Q R S T U V W X Y Z

Dowsing - Amateur Cartography tab

----------------------------------------------------------------------------
                             AMATEUR CARTOGRAPHY - Dowsing
----------------------------------------------------------------------------
Tuning: Standard


INTRO/INTERLUDE/OUTRO:
e|----------------------------------------------------------------|
B|-12--12--12-12-12-10--10--10-10-10-8---8---8-8-8-8---8---8-8-8--|
G|-0---0---0--0--0--0---0---0--0--0--0---0---0-0-0-0---0---0-0-0--|
D|-x---x---x--x--x--x---x---x--x--x--x---x---x-x-x-x---x---x-x-x--|
A|-12--12--12-12-12-9---9---9--9--9--7---7---7-7-7-7---7---7-7-7--|
E|----------------------------------------------------------------|
(cont)
e|---------------------------------------------------------|
B|-8---8---8-8-8-8---8---8-8-8---3--3-3--3-3---3---3-3-3---|
G|-0---0---0-0-0-0---0---0-0-0---0--0-0--0-0---0---0-0-0---|
D|-x---x---x-x-x-x---x---x-x-x---x--x-x--x-x---x---x-x-x---|
A|-7---7---7-7-7-5---5---5-5-5---3--3-3--3-3---3---3-3-3---|
E|---------------------------------------------------------|


VERSE:
e|--------------------------------------------------------------|
B|---3-----3-3-3-----3----3-3-3----3----3-3-3----3-----3-3-3----|
G|---0-----0-0-0-----0----0-0-0----0----0-0-0----0-----0-0-0----|
D|---0-----0-0-0-----0----0-0-0----0----0-0-0----0-----0-0-0----|
A|-----------x--------------x----2----2---2----3-----3---3------|
E|-3-----3---3-----3----3---3-----------------------------------|

Yep, that's it.
Tap to rate this tab
# A B C D E F G H I J K L M N O P Q R S T U V W X Y Z