Song name
# A B C D E F G H I J K L M N O P Q R S T U V W X Y Z

Dowsing - I Dont Even Care Anymore tab

Dowsing
I Don't Even Care Anymore
from the hit album "I Don't Even Care Anymore" (2013)

Tuning: Standard (EADGBe)

Please share this/post elsewhere, just please give me credit.
Transcribed by: Philip Tebby. email: capn.jazz@hotmail.com

Go to this link for an instructional video on how to play this song:
http://www.youtube.com/watch?v=ONU9lsdcTZk



"I've got better things to do..."
e- -----------------------------------------------------|
B- -----------------------------------------------------|
G- -10---5----------------------------------------------| 
D- -10---5----5----8------------------------------------|
A- -8----3----5----8------------------------------------|
E- -----------3----6------------------------------------|


"I just need to..."
e- -----------------------------------------------------|
B- -----------------------------------------------------|
G- -----------------------------------------------------| 
D- ---5----8----5----8----------------------------------|
A- ---5----8----5----8----------------------------------|
E- ---3----6----3----6----------------------------------|


"I'm happy at least..."
e- -----------------------------------------------------|
B- -----------------------------------------------------|
G- -10---5----------------------------------------------| 
D- -10---5----5----8------------------------------------|
A- -8----3----5----8------------------------------------|
E- -----------3----6------------------------------------|


"Do I wanna live my life..."
e- -----------------------------------------------------|
B- -----------------------------------------------------|
G- -----------------------------------------------------| 
D- ---5----8----5----8----------------------------------|
A- ---5----8----5----8----------------------------------|
E- ---3----6----3----6----------------------------------|


End on:
e- -----------------------------------------------------|
B- -----------------------------------------------------|
G- -----------------------------------------------------| 
D- ---3-------------------------------------------------|
A- ---3-------------------------------------------------|
E- ---1-------------------------------------------------|


Please check out my "Get Weird" tab too!


Lyrics:

I've got better things to do than sit around and think of you.
To get to the point of everything before I mix in my feelings
I just need to figure out who I've become.
I'm happy at least that's what I tell myself
Its day to day but that's cutting it too close.
Do I want to live my life to its full potential?
Do I want to live my life now that you're gone?
Yeah, I think so.
I don't even care anymore. 
Tap to rate this tab
# A B C D E F G H I J K L M N O P Q R S T U V W X Y Z