Song name
# A B C D E F G H I J K L M N O P Q R S T U V W X Y Z

Dozer - From Fire Fell tab

-------------------------------------------------------------------------------
			     FROM FIRE FELL - Dozer
-------------------------------------------------------------------------------
Tabbed by: James "Mansh" Thomson
Email: jamesrthomson@btinternet.com

This is my first proper tab so go easy on me. It's a fairly basic tune, but 
I felt I may as well post it anyway because there really aren't enough Dozer 
tabs out there and I pretty much know how to play most of their stuff (I've 
learnt all of Through The Eyes Of Heathens for myself and hope to write it 
all out and upload it too)

Tuning: Drop B (B F♯ B E G♯ C♯)

Riff 1a
||--------------------------------------------------------|
||--------------------------------------------------------|
||--------------------------------------------------------|
||---------------------------------------------0(let ring)|
||--------------------------------------------------------|
||-0-10-12-0-10-12-0-10-12-0-10h12p10h12-10-12---3--------|

Riff 1b
||--------------------------------------------------------|
||--------------------------------------------------------|
||--------------------------------------------------------|
||---------------------------------------------0(let ring)|
||--------------------------------------------------------|
||-0-10-12-0-10-12-0-10-12-0-10h12p10h12-10-12------------|

Riff 2a
||------------------------------------------|
||------------------------------------------|
||------------------------------------------|
||---------------------------------------0--|
||-0-10-12-0-10-12-0-10-12-0-10-12-10-12---0|
||-0-10-12-0-10-12-0-10-12-0-10-12-10-12----|

Riff 2b
||------------------------------------------|
||------------------------------------------|
||------------------------------------------|
||---------------------------------------3--|
||-0-10-12-0-10-12-0-10-12-0-10-12-10-12-3--|
||-0-10-12-0-10-12-0-10-12-0-10-12-10-12-3--|

Riff 2c
||------------------------------------------|
||------------------------------------------|
||------------------------------------------|
||---------------------------------------12-|
||-0-10-12-0-10-12-0-10-12-0-10-12-10-12-12-|
||-0-10-12-0-10-12-0-10-12-0-10-12-10-12-12-|

Riff 2d
||-------------------------------------------|
||-------------------------------------------|
||-------------------------------------------|
||-------------------------------------------|
||-0-10-12-0-10-12-0-10-12-0-10-12-0-10-12-0-|
||-0-10-12-0-10-12-0-10-12-0-10-12-0-10-12-0-|

Riff 3
||-----------------------------------------------------------------|
||-----------------------------------------------------------------|
||-----------------5-5-5-5-5-5-5-5-----------------5-5-5-5---------|
||-------------7-7-----------------------------7-7---------3-3-3-3-|
||-5-5-5-5-5-5---------------------5-5-5-5-5-5---------------------|
||-----------------------------------------------------------------|

Riff 4
||---------------------------------------------------------------------------|
||---------------------------------------------------------------------------|
||---------------------------------------------------------------------------|
||---------------------------------------------------------------------------|
||---------------------------------------------------------------------------|
||-8-8-0-5-5-0-13-13-0-10-10-0-10-0-10---------------------------------------|

Riff 5a
||---------------------------------------------------------------------------------|
||---------------------------------------------------------------------------------|
||---------------------------------------------------------------------------------|
||-000-0-0-10-10-10-10-000-0-0-12-12-12-12-000-0-0-10-10-10-10-000-0-0-15-15-15-15-|
||---------------------------------------------------------------------------------|
||---------------------------------------------------------------------------------|

Riff 5b
||---------------------------------------------------------------------------------|
||---------------------------------------------------------------------------------|
||---------------------------------------------------------------------------------|
||-0-0-0-0-10-10-10-10-0-0-0-0-12-12-12-12-0-0-0-0-10-10-10-10-0-0-0-0-15-15-15-15-|
||---------------------------------------------------------------------------------|
||---------------------------------------------------------------------------------|

Solo (sort of)
||---------------------------------------------------------------------------------|
||---------------------------------------------------------------------------------|
||-----------------------------------------12~~~~~~~~~~~~~~~~~~14~~~~~~~~~~~~~~~~~~|
||-12~~~~~~~~~~~~~~~~~~15~~~~~~~~~~~~~~~~~~----------------------------------------|
||---------------------------------------------------------------------------------|
||---------------------------------------------------------------------------------|

||---------------------------------------------------------------------------------|
||-13~~~~~~~~~~~~~~~~~~15~~~~~~~~~~~~~~~~~~----------------------------------------|
||-----------------------------------------14~~~~~~~~~~~~~~~~~~12~~~~~~~~~~~~~~~~~~|
||---------------------------------------------------------------------------------|
||---------------------------------------------------------------------------------|
||---------------------------------------------------------------------------------|


Order:

Riff 1a x1 (One guitar)
Riff 1b x1 "          "
Riff 1a x1 "          "
Riff 1b x1 "          "
Riff 2a x1 (Second guitar: Riff 2c)
Riff 2b x1 (Both guitars)
Riff 2a x1 (Second guitar: Riff 2c)
Riff 2b x1 (Both guitars)
Riff 3  x2 (Second guitar continues alternating riffs 1a and 1b)
Riff 4  x1 (One guitar)
Riff 2d x1 (Both guitars)
Riff 4  x1 (One guitar)
Riff 2d x1 (Both guitars)
Riff 1a x1 (One guitar)
Riff 1b x1 "          "
Riff 1a x1 "          "
Riff 1b x1 "          "
Riff 2a x1 (Second guitar: Riff 2c)
Riff 2b x1 (Both guitars)
Riff 2a x1 (Second guitar: Riff 2c)
Riff 2b x1 (Both guitars)
Riff 3  x2 (Second guitar continues alternating riffs 1a and 1b)
Riff 4  x1 (One guitar)
Riff 2d x1 (Both guitars)
Riff 4  x1 (One guitar)
Riff 2d x1 (Both guitars)
Riff 4  x1 (One guitar)
Riff 2d x1 (Both guitars)
Riff 4  x1 (One guitar)
Riff 2d x1 (Both guitars)
Riff 5a x1 (One guitar, more fuzz and more reverb)
Riff 5b x3 (Second guitar kicks in with the solo after 1 of these)
Riff 2a x1 (Second guitar: Riff 2c)
Riff 2b x1 (Both guitars)
Riff 2a x1 (Second guitar: Riff 2c)
Riff 2b x1 (Both guitars)
Let final D power chord ring. Second guitar plays a few random harmonics until the end.

| /  slide up
| \  slide down
| h  hammer-on
| p  pull-off
| ~  vibrato
| +  harmonic
| x  Mute note
===============================================================================
Tap to rate this tab
 
# A B C D E F G H I J K L M N O P Q R S T U V W X Y Z