Song name
# A B C D E F G H I J K L M N O P Q R S T U V W X Y Z

Dozer - Headed For The Sun tab

Band:   Dozer
Album:  Dozer & Unida (Split EP)
Song:   Headed For The Sun
Tuning: C Standard

I've tabbed out the main parts, it's pretty straight forward but there might be 
some mistakes. Here goes...

Main Riff

c |---------------------------------------------------------------|
G |---------------------------------------------------------------|
D#|---------------------------------------------------------------|
A#|---------------------------------------------------------------|
F |-5-7-7-2--2-2-2-2-2-2-2-2-2-2-2-5-7-7--8-8-8-8-8-8-8-8-8-8-8-8-|
C |-3-5-5-0--0-0-0-0-0-0-0-0-0-0-0-3-5-5--6-6-6-6-6-6-6-6-6-6-6-6-|


Chorus

c |------------------------------------------------------------------------------------|
G |------------------------------------------------------------------------------------|
D#|------------------------------------------------------------------------------------|
A#|------------------------------------------------------------------------------------|
F |-14--14-14-14-14-14-14-14-8--8-8-8-8-8-8-8-12--12-12-12-12-12-12-12-----------------|
C |-12--12-12-12-12-12-12-12-6--6-6-6-6-6-6-6-10--10-10-10-10-10-10-10-0--0-12-0--0-12-|

c |----------------------------------------------------------------------|
C |----------------------------------------------------------------------|
G |----------------------------------------------------------------------|
D#|----------------------------------------------------------------------|
A#|----------------------------------------------------------------------|
F |-14--14-14-14-14-14-14-14-8--8-8-8-8-8-8-8-5--5-5-5-7--8--8-8-8-8-8-8-|
C |-12--12-12-12-12-12-12-12-6--6-6-6-6-6-6-6-3--3-3-3-5--6--6-6-6-6-6-6-|


Bridge

c |-------------------------------------------|
G |-------------------------------------------|
D#|-------------------------------------------|
A#|-------------------------------------------|
F |--------10h12p10------------10h12p10-10h12-|
C |-0--0-0---------12-0--0-0-0----------------| 

Tap to rate this tab
# A B C D E F G H I J K L M N O P Q R S T U V W X Y Z