Song name
# A B C D E F G H I J K L M N O P Q R S T U V W X Y Z

Dr Acula - The Cuckoo Clock Of Doom tab

-------------------------------------------------------------------------------
	            The Cuckoo Clock Of Doom - Dr. Acula
-------------------------------------------------------------------------------
Tabbed by: Kyle Nightingale
Email:nightingale-26@hotmail.com

Tuning: Drop C (C G C F A D)


Whats up guys, this is my tab for TCCOD by Dr. Acula. Play Along to figure out the strumming
I think its about 90%(?) right.
Comment, Rate, Enjoy!


       0:00 - 0:09   Intro
D|---------------------------------|
A|---------------------------------|
F|--------------------------7-7----| x4
C|--------------------------0-0----|
G|--5--6-6--5--6-6--5--6-6---------|
C|--5--6-6--5--6-6--5--6-6---------|

      0:10 - 0:15    Verse
D|-----------------------------------------------------------|
A|-----------------------------------------------------------|
F|-----------------------------------------------------------|
C|-----------------------------------------------------------|
G|--6-0-0---5-0-0--6-0-0--6-0-5-0--6-0-0--5-0-0--6-0-0-0-0---|
C|--6-0-0---5-0-0--6-0-0--6-0-5-0--6-0-0--5-0-0--6-0-0-0-0---|
    . . .   . . .  . . .  . . .    . . .  . . .  . . . . .


   0:16 - 0:34    Verse 2
D|------------------------------------------------|
A|------------------------------------------------|
F|--7--7-7-7-7---10-10-10-10-10-p0----------------|
C|--x--x-x-x-x---x--x--x--x--x--------------------| x2
G|--5--5-5-5-5---8--8--8--8--8--p0--6-3-6-3-6-3---|
C|----------------------------------6-3-6-3-6-3---|

e|-------------------------------------------------------------------------------|
B|-------------------------------------------------------------------------------|
G|-7--7-7-7-7----10-10-10------12-12---7--7-7-7-7---10-10-10-10-10---------------|
D|-------------------------------------------------------------------------------|
A|-5--5-5-5-5----8--8--8-------10-10---5--5-5-5-5---8--8--8--8--8----6-3-6-3-6-3-|
E|-------------------------------------------------------------------6-3-6-3-6-3-|
                          This Part, play Verse 1
e|--------------|------------------------------------------------------------|
B|--------------|------------------------------------------------------------|
G|--------------|-------------V-E-R-S-E--1-----------------------------------|
D|--------------|------------------------------------------------------------|
A|--0----0-0----|------------------------------------------------------------|
    .    . .


e|---------------------------------------------------------------------------|
B|---------------------------------------------------------------------------|
G|---------------------------------------------------------------------------|
D|---------------------------------------------------------------------------|
A|---8-0-0---6-0-0---8-0-0---0-0-0-------------------------------------------|
E|---8-0-0---6-0-0---8-0-0---0-0-0-------------------------------------------|
     . . .   . . .   . . .   . . .

     Verse 1 again? Sorry, Couldn't figure it out
e|---------------------------------------------------------------------------|
B|---------------------------------------------------------------------------|
G|---------------------------------------------------------------------------|
D|---------------------------------------------------------------------------|
A|---------------------------------------------------------------------------|
E|---------------------------------------------------------------------------|

e|---------------------------------------------------------------------------|
B|---------------------------------------------------------------------------|
G|---------------------------------------------------------------------------|
D|---------------------------------------------------------------------------|
A|-0--0-0----0----0---0------------------------------------------------------|
E|-0--0-0----0----0---0------------------------------------------------------|
 Palm Muted..


 |----------------------------------------------|
 |----------------------------------------------|
 |---7-7--5-5--3-3--2--3-3--5---+3--------------|
 |------------------2----------------0~---------|
 |---5-5--3-3--1-1-----1-1--3--------0~---------|
 |-----------------------------------0~---------|

| /  slide up
| \  slide down
| h  hammer-on
| p  pull-off
| ~  vibrato
| +  harmonic
| .  Mute note
===============================================================================
Tap to rate this tab
# A B C D E F G H I J K L M N O P Q R S T U V W X Y Z