Song name
# A B C D E F G H I J K L M N O P Q R S T U V W X Y Z

Dr Acula - Beer Pong Massacre tab

Tabbed by: Derek Lemp (add me on Facebook) :D

BEER PONG MASSACRE
by Dr Acula

Intro
e|---------------------------------------------------|
B|---------------------------------------------------|
G|---------------------------------------------------|
D|-0-3-0-3-5-7-0-3-0-3-5---0-3-0-3-5-7-0-3-0-3-2-1-0-|
A|-----------------------4-------------------3-2-1-0-|
D|-------------------------------------------3-2-1-0-| x2

e|--------------------------------------------------|
B|--------------------------------------------------|
G|--------------------------------------------------|
D|-0-3-0-3-5-7-0-3-0-3-5---0-3-0-3-5-7-0-3-0--3--2--|
A|-----------------------4--------------------3--2--|
D|--------------------------------------------3--2--|

Verse 1 x2 but play the hammer-ons twice on the second time.
e|----------------------------------------------------------------|
B|----------------------------------------------------------------|
G|----------------------------------------------------------------|
D|----------------------------------------------------------------|
A|-0-0-5-0-3-0-5-0-4-0-5-0-8888-7-0-0-5-0-3-0-5-0-0-0-0-0-4-3-3-2-|
D|----------------------------------------------------------------|

e|--------------------------------------------------------------------------|
B|--------------------------------------------------------------------------|
G|--------------------------------------------------------------------------|
D|-----------------------------------------------------4h5h7-----5h6h8------|
A|-0-0-5-0-3-0-5-0-4-0-5-0-7777-8-0-0-5-0-3-0-5-0-4h5h7-----4h5h7-----------|
D|--------------------------------------------------------------------------|

Rap Part (listen to song to figure strum pattern)x2
e|----------------------------|
B|----------------------------|
G|----------------------------|
D|-0----------4h5h7-----5h6h8-|
A|-0-----4h5h7-----4h5h7------|
D|-0-x30----------------------|
   PM
play this at the end of the second time
e|---------|
B|---------|
G|---------|
D|-7---6-8-|
A|---------|
D|---------|

Verse 2
e|----------------------------------------------|
B|----------------------------------------------|
G|----------------------------------------------|
D|-----------------4-4-4-2-2-2-5-5-5-3-3-3------|
A|-----------------4-4-4-2-2-2-5-5-5-3-3-3------|
D|-4-3-2-3-2-1-x8--4-4-4-2-2-2-5-5-5-3-3-3-x4---|
  <-P.M.----------------------------------------|

Pre-Breakdown x4
e|-----------------------------------------------|
B|-----------------------------------------------|
G|-5/12------------------------------------------|
D|-4/11---------1-----1-----1--0h2h3-0-4h3h4h3-0-|
A|-3/10-x2--0-0-1-0-0-1-0-0-1--------------------|
D|----------0-0-1-0-0-1-0-0-1--------------------|
            PM.   PM.   PM.
This part can be rough to understand by looking at it. Where the "/" are, indicate 
You will slide from 3-4-5 chord to 10-11-12 chord and strum up and down until you get there. 
to the song helps for that.

Breakdown
e|----------------------------------------------------|
B|----------------------------------------------------|
G|----------------------------------------------------|
D|-0-----------------------------------0--------------|
A|-0-----------------------------------0-*PICK SLIDE*-|
D|-0-hold until you hear second strum--0-*PICK SLIDE*-|

Outro (H= Hammer-On Chord)
e|------------------------------------|
B|------------------------------------|
G|------------------------------------|
D|-----3---3-----3-----3-----5-6----0-|
A|-0-0-3-0-3-0-0-3-0-0-3-0-0-5-6----0-|
D|-0-0-3-0-3-0-0-3-0-0-3-0-0-5-6-x4-0-|
       H   H     H     H     H H

This seems to be the first full tab of this ANYWHERE! So please comment and rate, thank 
:) And if you make a video of playing it, and these tabs helped, please link them in 
video for others to use.
Tap to rate this tab
 
# A B C D E F G H I J K L M N O P Q R S T U V W X Y Z