Song name
# A B C D E F G H I J K L M N O P Q R S T U V W X Y Z

Dr Acula - Piano Lessons Can Be Murder tab

Well since nobody else has tabbed this song for guitar, than i suppose i will :D

This may be kinda wrong but its all i got:

Tuning: drop mother fuckin C (can also be played in D by the way)


"I have come here to chew bubblegum and kick ass...."

Intro:
--------------------------------|
--------------------------------|
--------------------------------|
-0~~~~~~~~----------------------|
-0~~~~~~~~--1/2/3/4/5/6/7/8/9---|
-0~~~~~~~~--1/2/3/4/5/6/7/8/9---|

little synth/bass part

breakdown:

---------------------------------|
---------------------------------|
---------------------------------|
---------------------------------|
---------------------------------|
-000-0-0-000-0-0-000-0-0-000-000-|     x2

little riff in second little synth/bass part:

-------------------------------------------------|
-------------------------------------------------|
-----------------11-10-5-6-11-10-----------------|
-5/11-10~~~-11-10---------------11-10~~-11-12-13-|
-------------------------------------------------|
-------------------------------------------------|

(Breakdown)

"You cant just go around killing ppl... Why?"

Grind:

----------------------------------|
----------------------------------|
-9999/11111111--------------------|
-8888/10101010--------------------|   x9
-7777/9-9-9-9---------------------|
----------------------------------|

----------------------------------|
----------------------------------|
----------------------------------|
----------------------------------|
-----------------0~~~~~-----------|
-000-0-0-000-0-0-0~~~~~-----------|

thats all i got, sorry i couldnt figure out the other shit :)
Tap to rate this tab
 
# A B C D E F G H I J K L M N O P Q R S T U V W X Y Z