Song name
# A B C D E F G H I J K L M N O P Q R S T U V W X Y Z

Dr Acula - Show Stopper tab

Part 1: (2:00-2:26)
D|-----------------------------------------------------------------------|
A|-----------------------------------------------------------------------|
F|-----------------------------------------------------------------------|
C|--------------------5----5---------------------------------------------|
G|-----3---3----------3----3-----------5---5----------8---8-- |-8888888--|
C|-333-3-3-3-x2---333---3--- x2----555-5-5-5-x2---888-8-8-8-x2|-8888888--|
   ...   .        ...   .          ...   .        ...   . 

Part 2: (2:27-3:04)
D|------------------------------------------------------------------|
A|------------------------------------------------------------------|
F|------------------------------------------------------------------|
C|------------------------------------------------------------------|
G|-3--5--8----------------------------------------------------------|
C|-3--5--8----------------------------------------------------------|
   ^^^^^^^
   Strum Patter

Part: 3 (3:04-3:08)     (3:09)
D|----------------------------------------------------------------------|
A|----------------------------------------------------------------------|
F|----------------------------------------------------------------------|
C|----------------------------------------------------------------------|
G|-----3---3--------|---3-2-3~------------------------------------------|
C|-333-3-3-3-x3-----|---3-2-3~------------------------------------------|
   ...   .

. = Palm Mute
~ = Ring
Tap to rate this tab
 
# A B C D E F G H I J K L M N O P Q R S T U V W X Y Z