Dr Acula - Theres No Glory In Fame tab

Artist: Dr. Acula
Song: There's No Glory In Fame

I know this is not 100% correct so give me a break people.
If there's any corrections, just tell me. Be sure to rate!!!

Intro (0:00-0:10)
D|-------------------------------------|
A|-------------------------------------|
F|-------------------------------------|
C|-------------------------------------|
G|-0-3-5-0-3-5-0-3-6-6-6-6-6-6---------|
C|-0-3-5-0-3-5-0-3-6-6-6-6-6-6---------|

Verse (0:11-0:44)              (0:44)
D|---------------------------------------------------|
A|---------------------------------------------------|
F|------------------------------End with slide-------|
C|-----------------------------|---------------------|
G|-0-3-5-0-3-5-0-3-6-6-6-6-6-6-|-6/------------------|
C|-0-3-5-0-3-5-0-3-6-6-6-6-6-6-|-6/------------------|

I will post the rest once I find out how to, enjoy!
Tap to rate this tab
 
# A B C D E F G H I J K L M N O P Q R S T U V W X Y Z