Song name
# A B C D E F G H I J K L M N O P Q R S T U V W X Y Z

Dr Acula - Shocker On Shock Street tab

Shocker on Shock Street
Dr.Acula

Riff 1,
  Pm.....................................
e|-----------------------------------------|
B|-----------------------------------------|
G|-----------------------------------------|
D|-----------------------------------------|
A|-----------------------------------------|
D|-0--1--3--0--1--3--0--1--3--0--1--3------|

Riff 2,

e|-----------------------------------------|
B|-----------------------------------------|
G|-15-15-15-15-15-15-15-15-15-15-----------|
D|-15-15-15-15-15-15-15-15-15-15-----------|
A|-13-13-13-13-13-13-13-13-13-13-----------|
D|-----------------------------------------|

Riff 3,

e|---------------------------------------------|
B|---------------------------------------------|
G|-12-11-15-14-12-11-15-14-15-14-15-14-15-14---|
D|-12-11-15-14-12-11-15-14-15-14-15-14-15-14---|
A|-10-9--13-12-10-9--13-12-13-12-13-12-13-12---|
D|---------------------------------------------|

Order
-Riff 1
-Riff 2
-Riff 1
-Riff 2
-Riff 1
-Riff 2
-Riff 1
-Riff 3
Tap to rate this tab
 
# A B C D E F G H I J K L M N O P Q R S T U V W X Y Z