Dr Chuds X-ward - Bury You Alive tab

Band:Dr. Chud's X-Ward
Song:Bury You Alive
Albun:Diagnosis For Death


Intro
E|------------|
B|------------|
G|------------|
D|------------|
A|-7----------|
E|-5----------|


Verse/Chorus
E|-------------------------------------------------------------|
B|-------------------------------------------------------------|
G|-------------------------------------------------------------|
D|----------------7--7-7-7-7-7-7----------------5--5-5-5-5-5-5-|
A|-7--7-7-7-7-7-7-5--5-5-5-5-5-5-5--5-5-5-5-5-5-3--3-3-3-3-3-3-|
E|-5--5-5-5-5-5-5----------------3--3-3-3-3-3-3----------------|

 |-------------------------------------------------------------|
 |-------------------------------------------------------------|
 |-------------------------------------------------------------|
 |----------------3--3-3-3-3-3-3-2--2-2-2-2-2-2-2-2-2-2-2-2-2--|
 |-3--3-3-3-3-3-3-1--1-1-1-1-1-1-0--0-0-0-0-0-0-0-0-0-0-0-0-0--|
 |-1--1-1-1-1-1-1----------------------------------------------|


Chorus 2x
Verse  2x
Chorus 2x
Verse  2x
Chorus 2x
Chorus 9x
Tap to rate this tab
 
# A B C D E F G H I J K L M N O P Q R S T U V W X Y Z