Song name
# A B C D E F G H I J K L M N O P Q R S T U V W X Y Z

Dr Chuds X-ward - Mommy Made Luv To An Alien tab

Band:Dr. Chud's X-Ward
Song:Mommy Made Luv To An Alien
Albun:Diagnosis For Death


Intro/chorus
E|-------------------------------------------------|
B|-------------------------------------------------|
G|-------------------------------------------------|
D|-------------4--4-4---4--7--7-7---7--7--7-7---7--|
A|-5--5-5---5--2--2-2---2--5--5-5---5--5--5-5---5--|
E|-3--3-3---3--------------------------------------|

Intro/chorus 2
E|-------------------------------------------------|
B|-------------------------------------------------|
G|-------------------------------------------------|
D|-------------4--4-4---4--7--7-7---7--7--7--9--9--|
A|-5--5-5---5--2--2-2---2--5--5-5---5--5--5--7--7--|
E|-3--3-3---3--------------------------------------|

verse
E|-------------------------------|
B|-------------------------------|
G|-------------------------------|
D|-------------------------9--9--|
A|-7-7-7-7-7-7-7-7-7-7-7-7-7--7--|
E|-5-5-5-5-5-5-5-5-5-5-5-5-------|

bridge
E|-----------------------------------------------------------------|
B|-----------------------------------------------------------------|
G|-----------------------------------------------------------------|
D|-----------------------------------------------------------------|
A|-8-8-8-8-8-8-8-8-8-8-8-8-8-8-8-8-8-8-8-8-8-8-8-8-8-8-8-8-8-8-8-8-|
E|-6-6-6-6-6-6-6-6-6-6-6-6-6-6-6-6-6-6-6-6-6-6-6-6-6-6-6-6-6-6-6-6-|

bridge 2
E|-------------------------|
B|-------------------------|
G|-------------------------|
D|-------------------------|
A|-5--5-5---5--5--5-5---5--|
E|-3--3-3---3--3--3-3---3--|


Intro  3x
Intro  2
verse  4x
chorus 3x
chorus 2
verse  4x
chorus 4x
bridge
bridge 2
bridge
bridge 2
bridge
chorus 3x
chorus 2
verse  4x
chorus 4x
bridge 2x
Tap to rate this tab
 
# A B C D E F G H I J K L M N O P Q R S T U V W X Y Z