Guitaretab - guitar tabs
Song name
# A B C D E F G H I J K L M N O P Q R S T U V W X Y Z

Dr Dog - The Old Days tab

"The Old Days" - Dr. Dog
Transcribed by Stefan


G
|---------3---------------3-------|
|-------3---3---3-------3---3---3-|
|-----4-------4-------4-------4---|
|-0-5-------------0-5-------------|
|---------------------------------|
|---------------------------------|

D
|---------------------------------|
|---------3---------------3-------|
|-------2---2---2-------2---2---2-|
|-----4-------4-------4-------4---|
|-0-5-------------0-5-------------|
|---------------------------------| 


G
Let go of the old ones
D
We've got some new ones
G
Hold on to the new stuff
D
And let go and get real tough
[ Tab from: http://www.guitaretab.com/d/dr-dog/115895.html ]
Em
Down, down, down
Moon gonna fall down
D
Thump, thump, thump
House gonna fall down
Em
Chop, chop, chop
Tree gonna fall down
D
Down, down, down
Down to the bottom

Trigger, when you pull it
Go home with a bullet
No birds in the birdcage
Flew off in his old age

Down, down, down
Moon gonna fall down
Thump, thump, thump
House gonna fall down
Chop, chop, chop
Tree gonna fall down
Back, back, back
Back to the old days

So full in the morning
Put on your dog skin
Wrap up the money
Save it for a sunny

Day, day, day
Moon gonna fall down
Thump, thump, thump
House gonna fall down
Chop, chop, chop
Tree gonna fall down
Back, back, back
Back to the old days
Related for The Old Days tab
Advertisement will be closed in 10 seconds