Song name
# A B C D E F G H I J K L M N O P Q R S T U V W X Y Z

Dr Dog - Going Home tab

-------------------------------------------------------------------------------
			     going home-Jon allen
-------------------------------------------------------------------------------
http://www.jon-allen.co.uk/
Tabbed by:FRED CRUNCH
Email:lysergicshaun@yahoo.co.uk

Tuning:DADGBD

This the song from the recent landrover ad. If you havent heard it you should.
There's two guitars going on in this song so here's just a simple way to play it sort of.
Please feel free to make changes.



      VERSE.

D|--0-----0-----0----0-|
B|--3-----0-----0----3-|
G|--2-----0-----0----2-|
D|--0-----3----/5----0-|
A|--------3----/5------|
D|--------3----/5------|

                                    CHORUS

    PLAY THIS BIT THREE TIMES THEN              THIS BIT TO FINISH CHORUS

D|---------------0---------------------------------0-------0---0-------------|
B|--------1---0--3---------------------------------0-------0---3-------------|
G|--------0---0--2---------------------------------0-------0---2-------------|
D|--------2---0--0---------------------------------3------/5---0-------------|
A|-0-2-3--3-2-2------------------------------------3------/5-----------------|
D|-------------------------------------------------3------/5-----------------|



Many miles we yet travel
Many lies we get to know
Theres a road that we must follow
But theres till time for us to grow

*CHORUS*
And though the way just keeps on winding
And everyday is a changing view
Down the line I keep on finding
This old road leads me back to yoU


I have had my share of leavin
I have walked this world alone
Now i hear your voice o' calling
I can see the lights of home

CHORUS


I dont need no stars to guide
I dont need no moonlit sky
'Cos I know my heart will take me
Back to where my true love lies

CHORUS



| /  slide up
| \  slide down
| h  hammer-on
| p  pull-off
| ~  vibrato
| +  harmonic
| x  Mute note
===============================================================================
Tap to rate this tab
 
# A B C D E F G H I J K L M N O P Q R S T U V W X Y Z