Song name
# A B C D E F G H I J K L M N O P Q R S T U V W X Y Z

Dr Dog - Alaska tab

Help us improve GuitareTab! Take a short survey!
Artist: Dr. Dog
Album: We All Belong (Park The Van 2007)
Song: Alaska
Tabbed by witmachine@yahoo.com

I remember seeing somewhere that the solo section of this song was requested.
So here it is, from my ears, starting from 1:54 on the record until 2:22


|1-e-+-a-2-e-+-a-3-e-+-a-4-e-+-a-|1-e-+-a-2-e-+-a-3-e-+-a-4-e-+-a-|
 1:54                             1:59
|--------------------------------|--------------------------------|
|--------------------------------|--------------------------------|
|13--12--11--11s9----9-----------|----9s6---5-4-0-----------------|
|----------------11--------------|------------------0-------------|
|--------------------------------|--------------------2~~~--------|
|--------------------------------|--------------------------------|

 2:02                             2:06
|--------------------------------|--------------------------------|
|--------------------------------|----------------7~~---0-8-0-10-0|
|-----------------------5------5-|7b-7b-5-7~~---------------------|
|--------------------5-7-7-------|--------------------------------|
|--------3b------0---------------|--------------------------------|
|3-4-----------------------------|--------------------------------|

 2:10                             2:13
|--------------------------------|--------------------------------|
|8-0-7\--------------------------|--------------------------0-----|
|--------6---6---6-4-6-7-6---6---|6-4-6---7-7---7-7-6-4---3-----3-|
|--------------------------------|--------------------------------|
|--------------------------------|--------------------------------|
|--------------------------------|--------------------------------|

 2:16                             2:19  
|--------------------------------|--------------------------------|
|--------------------------------|--------------------------------|
|2-0-----------------------------|--------------------------------|
|----3-0-------------------------|--------------------------------|
|--------0-------0--2-4--5-------|5--4-2--0-------0-------0--2-4-5|
|--------------------------------|--------------------------------|




Related for Alaska tab