Song name
# A B C D E F G H I J K L M N O P Q R S T U V W X Y Z

Dr Dog - The Ark tab

Help us improve GuitareTab! Take a short survey!
Artist: Dr. Dog
Album: Fate (Park The Van Records 2008)
Song: The Ark
Tabbed by witmachine@yahoo.com

After completing the bass tab for this song, i thought i would tackle the
guitar parts.  There is already a correct version with chords on UG, but
nothing for the solo.  I figured it out to the best of my abilities.
The solo has two guitars, each tabbed here.
I put the two together at the bottom so you can play both lines solo.

SOLO
     2:00
guitar 1
e |-------------------------------------------------------------------|
B |--12b-----12b-12--10------10--12--12b-----12b-12--10------10--12---|
G |----------------------10------------------------------10-----------|
D |-------------------------------------------------------------------|
A |-------------------------------------------------------------------|
E |-------------------------------------------------------------------|
guitar 2                                                              |
e |-------------------------------------------------------------------|
B |-------------------------------------------------------------------|
G |--12b-----12b-12--10------10--12--12b-----12b-12--10------10--12---|
D |----------------------12------------------------------12-----------|
A |-------------------------------------------------------------------|
E |-------------------------------------------------------------------|

guitar 1
e |-------------------------------------------------------------------|
B |--12b-----12b-12--10------10------12b-----12b-12--10------10-------|
G |----------------------10------10----------------------10------10---|
D |-------------------------------------------------------------------|
A |-------------------------------------------------------------------|
E |-------------------------------------------------------------------|
guitar 2                                                              |
e |-------------------------------------------------------------------|
B |-------------------------------------------------------------------|
G |--12b-----12b-12--10------10------12b-----12b-12--10------10-------|
D |----------------------12------12----------------------12------12---|
A |-------------------------------------------------------------------|
E |-------------------------------------------------------------------|

     2:14
guitar 1
e |-------------------------------------------------------------------|
B |--8-6-----------------8-----8-----8-----8-----8---3----------------|
G |------7-----------5-6-6-5-6-6-5-6-6-5-6-6-5-6-6-------3------------|
D |----------8---7----------------------------------------------------|
A |-------------------------------------------------------------------|
E |-------------------------------------------------------------------|
guitar 2                                                              |
e |-------------------------------------------------------------------|
B |-------------------------------------------------------------------|
G |--9-7--------------------------------------------------------------|
D |------8-----------6-7---6-7---6-7---6-7---6-7-----3b--0------------|
A |----------10--8----------------------------------------------------|
E |-------------------------------------------------------------------|

guitar 1
e |-------------------|
B |----------10--12---|
G |-------------------|
D |-------------------|
A |-------------------|
E |-------------------|
guitar 2              |
e |-------------------|
B |-------------------|
G |----------10--12---|
D |-------------------|
A |-------------------|
E |-------------------|

    2:22
guitar 1
e |-------------------------------------------------------------------|
B |--12b-----12b-12--10------10--12--12b-----12b-12--10------10--12---|
G |----------------------10------------------------------10-----------|
D |-------------------------------------------------------------------|
A |-------------------------------------------------------------------|
E |-------------------------------------------------------------------|
guitar 2                                                              |
e |-------------------------------------------------------------------|
B |-------------------------------------------------------------------|
G |--12b-----12b-12--10------10--12--12b-----12b-12--10------10--12---|
D |----------------------12------------------------------12-----------|
A |-------------------------------------------------------------------|
E |-------------------------------------------------------------------|

guitar 1
e |-------------------------------------------------------------------|
B |--8-6-----------------8-----8-----8-----8-----8--------------------|
G |------7-----------5-6-6-5-6-6-5-6-6-5-6-6-5-6-6---7---3------------|
D |----------8---7-------------------------------------------3---5----|
A |-------------------------------------------------------------------|
E |-------------------------------------------------------------------|
guitar 2                                                              |
e |-------------------------------------------------------------------|
B |-------------------------------------------------------------------|
G |--9-7--------------------------------------------------------------|
D |------8-----------6-7---6-7---6-7---6-7---6-7----------------------|
A |----------10--8-----------------------------------8---5---1--/5----|
E |-------------------------------------------------------------------|

guitar 1
e |-------------------||
B |-------------------||
G |------5------------||
D |--7-------6b-------||
A |--------------8----||
E |-------------------||
guitar 2              ||
e |-------------------||
B |-------------------||
G |-------------------||
D |------5------------||
A |-/8----------------||
E |-------------------||


And for the lonely guitarist:
     2:00
e |-------------------------------------------------------------------|
B |--12b-----12b-12--10------10--12--12b-----12b-12--10------10--12---|
G |--12b-----12b-12--10--10--10--12--12b-----12b-12--10--10--10--12---|
D |----------------------12------------------------------12-----------|
A |-------------------------------------------------------------------|
E |-------------------------------------------------------------------|

e |-------------------------------------------------------------------|
B |--12b-----12b-12--10------10------12b-----12b-12--10------10-------|
G |--12b-----12b-12--10--10--10--10--12b-----12b-12--10--10--10--10---|
D |----------------------12------12----------------------12------12---|
A |-------------------------------------------------------------------|
E |-------------------------------------------------------------------|
     2:14
e |-------------------------------------------------------------------|
B |--8-6-----------------8-----8-----8-----8-----8---3----------------|
G |--9-7-7-----------5-6-6-5-6-6-5-6-6-5-6-6-5-6-6-------3------------|
D |------8---8---7---6-7---6-7---6-7---6-7---6-7-----3b--0------------|
A |----------10--8----------------------------------------------------|
E |-------------------------------------------------------------------|

e |-------------------|
B |----------10--12---|
G |----------10--12---|
D |-------------------|
A |-------------------|
E |-------------------|
    2:22
e |-------------------------------------------------------------------|
B |--12b-----12b-12--10------10--12--12b-----12b-12--10------10--12---|
G |--12b-----12b-12--10--10--10--12--12b-----12b-12--10--10--10--12---|
D |----------------------12------------------------------12-----------|
A |-------------------------------------------------------------------|
E |-------------------------------------------------------------------|
      2:30
e |-------------------------------------------------------------------|
B |--8-6-----------------8-----8-----8-----8-----8--------------------|
G |--9-7-7-----------5-6-6-5-6-6-5-6-6-5-6-6-5-6-6---7---3------------|
D |------8---8---7---6-7---6-7---6-7---6-7---6-7-------------3---5----|
A |----------10--8-----------------------------------8---5---1--/5----|
E |-------------------------------------------------------------------|

e |-------------------||
B |-------------------||
G |------5------------||
D |--7---5---6b-------||
A |-/8-----------8----||
E |-------------------||


Enjoy!
Related for The Ark tab