Song name
# A B C D E F G H I J K L M N O P Q R S T U V W X Y Z

Dr Dog - Turning The Century tab

The tuning in this song is basically an open D, but if you want 

to play both parts with ease, then keep your high E and your B 

the same

Tuning: D A D F# B E

Legend
h - hammer on/pull off
b - bend

LEAD GUITAR:
E |-10-------------9h-10------|----------------|
B |---------------------------|--6--7----------|
F#|o--------------------------|----------------|
D |o--------------------------|----------------|
A |---------------------------|----------------|
D |---------------------------|----------------|

|----------------------------|------|
|--8--------9--10----8-------|--7---|
|----------------------------|-----o|
|----------------------------|-----o|
|----------------------------|------|
|----------------------------|------|


|----------|----------|----------------|-------|
|--5--3----|--2--0----|--5--3--2--0----|-------|
|----------|----------|----------------|--3----|
|----------|----------|----------------|-------|
|----------|----------|----------------|-------|
|----------|----------|----------------|-------|


|----------------------------|
|----------------------------|
|O----------------0---------O|
|O-------0-----------0------O|
|----------------------------|
|--0-----------0-------------|

Timing on this is wrong, notes are right. Listen to the song to 

see when to come in.
|----------------|----------------|-------||
|-----------5b---|--3--------5b---|--3----||
|----------------|----------------|-------||
|----------------|----------------|-------||
|----------------|----------------|-------||
|----------------|----------------|-------||

RHYTHM GUITAR:
Repeat 8x before lead guitar enters
|----------------------------|
|----------------------------|
|O----------------12--------O|
|O-------12----------12-----O|
|----------------------------|
|--12----------12------------|

Play this after lead guitar enters
|----------------------------|
|----------------------------|
|O----------------0---------O|
|O-------0-----------0------O|
|----------------------------|
|--0-----------0-------------|

Thats about as much as I could figure out. I might update later 

if I can figure out some other parts to it.
Tap to rate this tab
# A B C D E F G H I J K L M N O P Q R S T U V W X Y Z