Song name
# A B C D E F G H I J K L M N O P Q R S T U V W X Y Z

Dr Dog - Take Me Into Town tab

-------------------------------------------------------------------------------
                             Take Me Into Town – Dr Dog
-------------------------------------------------------------------------------
Tabbed by: bchid
E-mail: bchidester@comcast.net

Tuning: standard

Intro Riff and main riff through out
e|----------------------------------------------------------------------------------|
B|-------------------2--------------------------------------------------------------|
G|--4-4-4-4-2-----------------------------------------------------------------------|
D|----------------4-----------------------------------------------------------------|
A|----------------------------------------------------------------------------------|
E|----------------------------------------------------------------------------------|

Lead During First Chorus
e|----------------------------------|
B|-------------5-----------------9--|
G|-------------6-----------------9--|
D|-------5-7-7-----------------9----|
A|-------------------------5-7------|
E|----------------------------------|

At “I guess this shirt will do” and “I guess it’s just no use” and
“figure out what it all means”…pause then
e|----------------------------------------------------------------------------------|
B|-------------------9--------------------------------------------------------------|
G|----------7-h-9-------------------------------------------------------------------|
D|----------------------------------------------------------------------------------|
A|----------------------------------------------------------------------------------|
E|----------------------------------------------------------------------------------|

Lead During Second Chorus
e|--------------------------------------------------------------------------------|
B|--------------------------------------------------------------------------------|
G|----9-9-9----9-9-9----9-9-9-9-9-9-9-9-9-9-99-9-9-9-9---Until Bridge-------------|
D|-7----------7---------7---------------------------------------------------------|
A|--------------------------------------------------------------------------------|
E|--------------------------------------------------------------------------------|

Lead During Third Chorus
e|-------------------------------|  repeat until last “Take me into Town”  then
B|-------17-17-17------17-17-17--|
G|--14---------------14----------|
D|-------------------------------|
A|-------------------------------|
E|-------------------------------|

e|-----------------------------------------------------------------------------|
B|-16-16-16-16—14-14-14-14—12-12-12-12-----------------------------------------|
G|-----------------------------------------------------------------------------|
D|-----------------------------------------------------------------------------|
A|-----------------------------------------------------------------------------|
E|-----------------------------------------------------------------------------|



e|-----------------------------------------------------------------------------|
B|---14-14-----9-9-9--------9--14-14-----9-9-9--------9------------------------|
G|---14-14-----9-9-9--------9--14-14-----9-9-9--------9------------------------|
D|---14-14-11-9-9-9-9-11----14-14-11-9-9-9-9-11--------------------------------|
A|-----------------------------------------------------------------------------|
E|-----------------------------------------------------------------------------|

e|---------------------------------------------------|
B|--14-14-----9--------------------------------------|
G|--14-14-----9---4-4-4-2---2-2-2-2------------------|
D|--14-14-11-9-------------4------------2-2-2-4-5-6--|
A|---------------------------------------------------|
E|---------------------------------------------------|

e|--------------------------------------------------------------------2-2----------------------4--2|
B|-----------2----------------------------------------------2-2-2--3-3-------------2-2-2--5--3-----|
G|-----2-4--------2-4-4-----2-4-2-----2-4-4-----2-4---------2-2--------2-4----------4--2-----------|
D|2-4--------2-4--------2-4--------2-4-------2-4---------------------2-4---------------------------|
A|-------------------------------------------------------------------------------------------------|
E|-------------------------------------------------------------------------------------------------|


e|-----------------------------------------------------------------------------|
B|---14-14-----9-9-9--------9--14-14-----9-9-9--------9------------------------|
G|---14-14-----9-9-9--------9--14-14-----9-9-9--------9------------------------|
D|---14-14-11-9-9-9-9-11----14-14-11-9-9-9-9-11--------------------------------|
A|-----------------------------------------------------------------------------|
E|-----------------------------------------------------------------------------|

e|-9---9---9---9---------7-7-7-7---------5-5-5-5---------4-3-4-4--|
B|-10-10-10-10-9-7---9-9-9-9--7-5--5-5-5-5--7-5--5-4-5-5----------|
G|-9---9---9--9----------9-9-9-9---------6-6-6-6--------4-3-4-4---|
D|----------------------------------------------------------------|
A|----------------------------------------------------------------|
E|----------------------------------------------------------------|

e|----9---9---9------------------------------------------------------------------------|
B|----10-10-10--------9-9--------------------------------------------------------------|
G|----9---9---9---------9-9---------9--------------------------------------------------|
D|-------------------11--9-9--9-11-----------------------------------------------------|
A|-------------------------------------------------------------------------------------|
E|-------------------------------------------------------------------------------------|


************************************

| h   hammer-on

************************************
Tap to rate this tab
 
# A B C D E F G H I J K L M N O P Q R S T U V W X Y Z