Song name
# A B C D E F G H I J K L M N O P Q R S T U V W X Y Z

Dr Dog - The Truth tab

-------------------------------------------------------------------------------
                                                    THE TRUTH - Dr. Dog
-------------------------------------------------------------------------------
Tabbed by: Chun
E-mail: jackiewantsablackeye@aol.com

Tuning: Standard

The little thingy at the beginning if anyone wanna play it
e|--10\9-7-5/7-9-------------------------------------------------------------|
B|---------------------------------------------------------------------------|
G|---------------------------------------------------------------------------|
D|---------------------------------------------------------------------------|
A|---------------------------------------------------------------------------|
E|---------------------------------------------------------------------------|

Riff 1
e|-5-2-5-5-2-5--2-5-2-5-5-2-9------------------------------------------------|
B|---------------------------------------------------------------------------|
G|---------------------------------------------------------------------------|
D|---------------------------------------------------------------------------|
A|---------------------------------------------------------------------------|
E|---------------------------------------------------------------------------|

e|-5-2-5-2-------------------------------------------------------------------|
B|---------5-2---------------------------------------------------------------|
G|-------------4-2-4---------------------------------------------------------|
D|-------------------4-------------------------------------------------------|
A|---------------------------------------------------------------------------|
E|---------------------------------------------------------------------------|

Riff 2
e|------------------------2--------------------------------------------------|
B|--------2-------2-3-2----5-2-5---3-2---------------------------------------|
G|-2--2-4--4----4----------------------4-2-----------------------------------|
D|---------------------------------------------------------------------------|
A|---------------------------------------------------------------------------|
E|---------------------------------------------------------------------------|

e|---------------------------------------------------------------------------|
B|-----2------2-3-2---2-3-4-3-2----------------------------------------------|
G|-2-4--4---4--------------------4-2-----------------------------------------|
D|-----------------------------------4-2-------------------------------------|
A|---------------------------------------4-----------------------------------|
E|---------------------------------------------------------------------------|

************************************

| /   slide up
| \   slide down

************************************



Riff 1 x2
end with e|-5-2-5-----|

A                Bm    C#m          Bm
The truth don't stop, it makes you move
A           Bm    C#m       Bm
Round and round, like the moon

              A                    Bm                 C#m                    Bm
It's coming down, the truth don't stop. It's really coming, the truth don't stop
              A                     Bm            C#m                  Bm                E
It's falling hard, the truth don't stop. Another day, the truth don't stop, thunder and lightening 

Riff 2

A            Bm  C#m          Bm
The devil's done, I pay my dues 
A                  Bm  C#m                 Bm
But it just won't quit, he don't like to lose 

              A                    Bm                 C#m                    Bm
It's coming down, the truth don't stop. It's really coming, the truth don't stop
              A                     Bm            C#m                  Bm                E
It's falling hard, the truth don't stop. Another day, the truth don't stop, thunder and lightening 

A             Bm
Let the rain fall
*play A, Bm in between with Riff 1 in the background (optional)

A    : {0 0 2 2 2 0} 
Bm   : {2 2 4 4 3 2} 
C#m  : {4 4 6 6 5 4} 
E    : {0 2 2 1 0 0} 



Please email me if you have any questions or corrections.
Thanks :D
Tap to rate this tab
# A B C D E F G H I J K L M N O P Q R S T U V W X Y Z