Song name
# A B C D E F G H I J K L M N O P Q R S T U V W X Y Z

Dr Dog - How Dare tab

-How Dare-
-Dr. Dog-
----------

Intro: F bass F Strum

F
Hoooo-oooooooh

Hoooo-oooooooh									
									       
Well, in that fallow field, it's where I been, it's where I'll be               
    /f     /c  /a#  /g  /f    /g /f *                               
Out there, how bare out there                                             
								       
I've been thinking 'bout my true love and just what she done to me              
    Riff 
How fair, how fair, how fair


How dare, how dare

How dare, how dare
    Riff
How dare she call my name x2


Well I don't believe in god and I don't believe I can
How strange, how strange, how strange
I was raised here in the country and the land made me a man
Now shes erased it, had me learn it all again


How dare, how dare
How dare, how dare
How dare she call my name x2

Bb7
For her mother I'd pull water

Dig field, work for her father
                                      F
I'd shine my boots and then I'd cut my hair
Bb7
-------------------------------

Dug         that's when I choke
                                          F   Riff
Said I'm moving for the west but you stay here


Hoooo-oooooooh

e|-------------------------|
B|-------------------------|
G|--12b14r12p10-10-10-10---|
D|-------------------------|
A|-------------------------|
E|-------------------------|

Hoooo-oooooooh

e|-----------------------------12---|
B|--------------------------12------|
G|--12b14-b14-b14-/15-14-12---------|
D|----------------------------------|
A|----------------------------------|
E|----------------------------------|

Hoooo-oooooooh

e|---------------------|
B|----------------10---|
G|--8-8-/10-10-10------|
D|---------------------|
A|---------------------|
E|---------------------|

Hoooo-oooooooh

e|-----------------------------12----------------|
B|-------------------15------12------12/15-/12---|
G|--10-/12-12-12-/14----14/12--------------------|
D|-----------------------------------------------|
A|-----------------------------------------------|
E|-----------------------------------------------|

Mathard says my baby misses me
How dare, how dare, how dare
She says the west it was unkind, 
She need the farm and hates the sea
How dare, how dare, how dare


How dare, how dare
How dare, how dare
How dare she call my name x2


*Riff
e|-------------------------|
B|-------------------------|
G|-------------------------|
D|--3----------------------|
A|-----3--1----------------|
E|-----------3--1----3-1---|
Tap to rate this tab
# A B C D E F G H I J K L M N O P Q R S T U V W X Y Z