Song name
# A B C D E F G H I J K L M N O P Q R S T U V W X Y Z

Dr Dog - From tab

-From-
-Dr. Dog-
---------

Intro:E

E
Oh my love
         F#m
Don't ya leave me
A              Abm          F#m
I don't wannna learn how to die
       E
Ohoh my love

And oh my my
I can't get over
I can't even seem to get by
Ohoh my my

And oh my land
It ain't beneath me
Cause I got my head in the sand
Ohoh my land

And oh my eyes
No they decieve me
Seeing good I can't understand
Ohoh my eyes

E6-E7

A                           
It's like a choo choo train rollin away
Ab        A                                      E
Another a choo choo rain wash me away when we're apart x2
               F#m       E   
Cause you're a part of my heart
         F#m         E  
And I'm apart from my heart 

Riff
e|-----------------------------------------------------|
B|-----------------------------4---5---4-4-------------|
G|-----------------------4-6-4---4---6-----4-6---------|
D|--7-6--6-4---4-----4-7-------------------------------|
A|-----------7-----7-----------------------------------|
E|-----------------------------------------------------|

e|-----------------------------------------------------|
B|-----------------------------------------------------|
G|--6-4-4-4-----6-4-4-4--4-----------------------------|
D|----------7-7------------7-4-6-4-4-2h4-4--4-2---2----|
A|----------------------------------------------4------|
E|-----------------------------------------------------|

e|----------------9--------9--------9--------9---------|
B|---------12-9-9---9-12-9---9-12-9---9-12-9---9-12-9--|
G|--2-4-4----------------------------------------------|
D|-----------------------------------------------------|
A|-----------------------------------------------------|
E|-----------------------------------------------------|

e|--9-9-------10b-9------------------------------------|
B|------12-12-------10-9-10----9-----------------------|
G|--------------------------11---9-11------------------|
D|-----------------------------------------------------|
A|-----------------------------------------------------|
E|-----------------------------------------------------|

e|-----------------------------------------------------|
B|-----------10-10b------------------------------------|
G|-------9-9--------11-9-7h9-9-7-6---------------------|
D|--9-11---------------------------9-7h9p7-------------|
A|-----------------------------------------------------|
E|-----------------------------------------------------|

e|-----------------------------------------------------|
B|--------4--------------------------------------------|
G|--4h6-7---7-6~---------------------------------------|
D|-----------------------------------------------------|
A|-----------------------------------------------------|
E|-----------------------------------------------------|

Oh my god
He listens to me
When I ain't even talking out loud
Ohoh my god

And he says my son
Now listen to me
Listen while the listenin's good
You're not my son

But oh my love
No it ain't easy
But it ain't the type to give up and die
Thats not my love

It's like a choo choo train rollin away
Another a choo choo rain wash me away when we're apart x2
Cause you're a part of my heart
And I'm apart from my heart 

From, from, from, from, from, from, from, from, from, from 

E

From, from, from, from, from, from, from

E

From, from, from
Tap to rate this tab
 
# A B C D E F G H I J K L M N O P Q R S T U V W X Y Z